  0
SECTION
  2
HEADER
  9
$ACADVER
  1
AC1009
  9
$INSBASE
 10
0.0
 20
0.0
 30
0.0
  9
$EXTMIN
 10
-198.3639670051052
 20
-144.95820522418941
 30
-0.0015258207003583
  9
$EXTMAX
 10
198.36443266642161
 20
144.95867088547669
 30
0.0000000349246037
  9
$LIMMIN
 10
0.0
 20
0.0
  9
$LIMMAX
 10
12.0
 20
9.0
  9
$ORTHOMODE
 70
     0
  9
$REGENMODE
 70
     1
  9
$FILLMODE
 70
     1
  9
$QTEXTMODE
 70
     0
  9
$MIRRTEXT
 70
     0
  9
$DRAGMODE
 70
     2
  9
$LTSCALE
 40
1.0
  9
$OSMODE
 70
   231
  9
$ATTMODE
 70
     1
  9
$TEXTSIZE
 40
2.0
  9
$TRACEWID
 40
0.05
  9
$TEXTSTYLE
  7
STANDARD
  9
$CLAYER
  8
0
  9
$CELTYPE
  6
CONTINUOUS
  9
$CECOLOR
 62
   256
  9
$DIMSCALE
 40
1.0
  9
$DIMASZ
 40
0.18
  9
$DIMEXO
 40
0.0625
  9
$DIMDLI
 40
0.38
  9
$DIMRND
 40
0.0
  9
$DIMDLE
 40
0.0
  9
$DIMEXE
 40
0.18
  9
$DIMTP
 40
0.0
  9
$DIMTM
 40
0.0
  9
$DIMTXT
 40
0.18
  9
$DIMCEN
 40
0.09
  9
$DIMTSZ
 40
0.0
  9
$DIMTOL
 70
     0
  9
$DIMLIM
 70
     0
  9
$DIMTIH
 70
     1
  9
$DIMTOH
 70
     1
  9
$DIMSE1
 70
     0
  9
$DIMSE2
 70
     0
  9
$DIMTAD
 70
     0
  9
$DIMZIN
 70
     0
  9
$DIMBLK
  1

  9
$DIMASO
 70
     1
  9
$DIMSHO
 70
     1
  9
$DIMPOST
  1

  9
$DIMAPOST
  1

  9
$DIMALT
 70
     0
  9
$DIMALTD
 70
     2
  9
$DIMALTF
 40
25.399999999999999
  9
$DIMLFAC
 40
1.0
  9
$DIMTOFL
 70
     0
  9
$DIMTVP
 40
0.0
  9
$DIMTIX
 70
     0
  9
$DIMSOXD
 70
     0
  9
$DIMSAH
 70
     0
  9
$DIMBLK1
  1

  9
$DIMBLK2
  1

  9
$DIMSTYLE
  2
STANDARD
  9
$DIMCLRD
 70
     0
  9
$DIMCLRE
 70
     0
  9
$DIMCLRT
 70
     0
  9
$DIMTFAC
 40
1.0
  9
$DIMGAP
 40
0.09
  9
$LUNITS
 70
     2
  9
$LUPREC
 70
     4
  9
$SKETCHINC
 40
0.1
  9
$FILLETRAD
 40
0.0
  9
$AUNITS
 70
     0
  9
$AUPREC
 70
     0
  9
$MENU
  1
.
  9
$ELEVATION
 40
0.0
  9
$PELEVATION
 40
0.0
  9
$THICKNESS
 40
0.0
  9
$LIMCHECK
 70
     0
  9
$BLIPMODE
 70
     0
  9
$CHAMFERA
 40
0.0
  9
$CHAMFERB
 40
0.0
  9
$SKPOLY
 70
     0
  9
$TDCREATE
 40
2457724.414269607
  9
$TDUPDATE
 40
2457724.4149479512
  9
$TDINDWG
 40
0.0006788889
  9
$TDUSRTIMER
 40
0.0006788889
  9
$USRTIMER
 70
     1
  9
$ANGBASE
 50
0.0
  9
$ANGDIR
 70
     0
  9
$PDMODE
 70
     0
  9
$PDSIZE
 40
0.0
  9
$PLINEWID
 40
0.0
  9
$COORDS
 70
     2
  9
$SPLFRAME
 70
     0
  9
$SPLINETYPE
 70
     6
  9
$SPLINESEGS
 70
     8
  9
$ATTDIA
 70
     0
  9
$ATTREQ
 70
     1
  9
$HANDLING
 70
     1
  9
$HANDSEED
  5
A1F
  9
$SURFTAB1
 70
     6
  9
$SURFTAB2
 70
     6
  9
$SURFTYPE
 70
     6
  9
$SURFU
 70
     6
  9
$SURFV
 70
     6
  9
$UCSNAME
  2

  9
$UCSORG
 10
0.0
 20
0.0
 30
0.0
  9
$UCSXDIR
 10
1.0
 20
0.0
 30
0.0
  9
$UCSYDIR
 10
0.0
 20
1.0
 30
0.0
  9
$PUCSNAME
  2

  9
$PUCSORG
 10
0.0
 20
0.0
 30
0.0
  9
$PUCSXDIR
 10
1.0
 20
0.0
 30
0.0
  9
$PUCSYDIR
 10
0.0
 20
1.0
 30
0.0
  9
$USERI1
 70
     0
  9
$USERI2
 70
     0
  9
$USERI3
 70
     0
  9
$USERI4
 70
     0
  9
$USERI5
 70
     0
  9
$USERR1
 40
0.0
  9
$USERR2
 40
0.0
  9
$USERR3
 40
0.0
  9
$USERR4
 40
0.0
  9
$USERR5
 40
0.0
  9
$WORLDVIEW
 70
     1
  9
$SHADEDGE
 70
     3
  9
$SHADEDIF
 70
    70
  9
$TILEMODE
 70
     1
  9
$MAXACTVP
 70
    64
  9
$PLIMCHECK
 70
     0
  9
$PEXTMIN
 10
1.0000000000000000E+020
 20
1.0000000000000000E+020
 30
1.0000000000000000E+020
  9
$PEXTMAX
 10
-1.0000000000000000E+020
 20
-1.0000000000000000E+020
 30
-1.0000000000000000E+020
  9
$PLIMMIN
 10
0.0
 20
0.0
  9
$PLIMMAX
 10
12.0
 20
9.0
  9
$UNITMODE
 70
     0
  9
$VISRETAIN
 70
     1
  9
$PLINEGEN
 70
     0
  9
$PSLTSCALE
 70
     1
  0
ENDSEC
  0
SECTION
  2
TABLES
  0
TABLE
  2
VPORT
 70
     1
  0
VPORT
  2
*ACTIVE
 70
     0
 10
0.0
 20
0.0
 11
1.0
 21
1.0
 12
0.0002328306582342
 22
0.0002328306436539
 13
0.0
 23
0.0
 14
1.0
 24
1.0
 15
0.0
 25
0.0
 16
0.0
 26
0.0
 36
1.0
 17
0.0
 27
0.0
 37
0.0
 40
292.06440852529329
 41
2.2707045735475888
 42
50.0
 43
0.0
 44
0.0
 50
0.0
 51
0.0
 71
     0
 72
   100
 73
     1
 74
     1
 75
     0
 76
     0
 77
     0
 78
     0
  0
ENDTAB
  0
TABLE
  2
LTYPE
 70
     6
  0
LTYPE
  2
CONTINUOUS
 70
     0
  3
実線
 72
    65
 73
     0
 40
0.0
  0
LTYPE
  2
HIDDEN
 70
     0
  3
_ _ _ _ _ _ _ _ _ _ _ _ _ _ _ _ _ _ _ _ _ _ _
 72
    65
 73
     2
 40
0.375
 49
0.25
 49
-0.125
  0
LTYPE
  2
CENTER
 70
     0
  3
____ _ ____ _ ____ _ ____ _ ____ _ ____ _ ____
 72
    65
 73
     4
 40
2.0
 49
1.25
 49
-0.25
 49
0.25
 49
-0.25
  0
LTYPE
  2
PHANTOM
 70
     0
  3
_____ _ _ _____ _ _ _____ _ _ _____ _ _ ____
 72
    65
 73
     6
 40
2.5
 49
1.25
 49
-0.25
 49
0.25
 49
-0.25
 49
0.25
 49
-0.25
  0
LTYPE
  2
DASHED
 70
     0
  3
__ __ __ __ __ __ __ __ __ __ __ __ __ __ __
 72
    65
 73
     2
 40
0.75
 49
0.5
 49
-0.25
  0
ENDTAB
  0
TABLE
  2
LAYER
 70
     1
  0
LAYER
  2
0
 70
     0
 62
     7
  6
CONTINUOUS
  0
ENDTAB
  0
TABLE
  2
STYLE
 70
     2
  0
STYLE
  2
STANDARD
 70
     0
 40
2.0
 41
1.0
 50
0.0
 71
     0
 42
2.0
  3
txt
  4
bigfont
  0
STYLE
  2
ANNOTATIVE
 70
     0
 40
0.0
 41
1.0
 50
0.0
 71
     0
 42
0.2
  3
txt
  4

  0
ENDTAB
  0
TABLE
  2
VIEW
 70
     0
  0
ENDTAB
  0
TABLE
  2
UCS
 70
     0
  0
ENDTAB
  0
TABLE
  2
APPID
 70
     5
  0
APPID
  2
ACAD
 70
     0
  0
APPID
  2
ACADANNOTATIVE
 70
     0
  0
APPID
  2
ACAD_EXEMPT_FROM_CAD_STANDARDS
 70
     0
  0
APPID
  2
ACAD_NAV_VCDISPLAY
 70
     0
  0
APPID
  2
ACAD_MLEADERVER
 70
     0
  0
ENDTAB
  0
TABLE
  2
DIMSTYLE
 70
     3
  0
DIMSTYLE
  2
STANDARD
 70
     0
  3

  4

  5

  6

  7

 40
1.0
 41
0.18
 42
0.0625
 43
0.38
 44
0.18
 45
0.0
 46
0.0
 47
0.0
 48
0.0
140
0.18
141
0.09
142
0.0
143
25.399999999999999
144
1.0
145
0.0
146
1.0
147
0.09
 71
     0
 72
     0
 73
     1
 74
     1
 75
     0
 76
     0
 77
     0
 78
     0
170
     0
171
     2
172
     0
173
     0
174
     0
175
     0
176
     0
177
     0
178
     0
  0
DIMSTYLE
  2
ANNOTATIVE
 70
     0
  3

  4

  5

  6

  7

 40
1.0
 41
0.18
 42
0.0625
 43
0.38
 44
0.18
 45
0.0
 46
0.0
 47
0.0
 48
0.0
140
0.18
141
0.09
142
0.0
143
25.399999999999999
144
1.0
145
0.0
146
1.0
147
0.09
 71
     0
 72
     0
 73
     1
 74
     1
 75
     0
 76
     0
 77
     0
 78
     0
170
     0
171
     2
172
     0
173
     0
174
     0
175
     0
176
     0
177
     0
178
     0
  0
ENDTAB
  0
ENDSEC
  0
SECTION
  2
BLOCKS
  0
BLOCK
  8
0
  2
$MODEL_SPACE
 70
     0
 10
0.0
 20
0.0
 30
0.0
  3
$MODEL_SPACE
  1

  0
ENDBLK
  5
6D
  8
0
  0
BLOCK
 67
     1
  8
0
  2
$PAPER_SPACE
 70
     0
 10
0.0
 20
0.0
 30
0.0
  3
$PAPER_SPACE
  1

  0
ENDBLK
  5
69
 67
     1
  8
0
  0
ENDSEC
  0
SECTION
  2
ENTITIES
  0
LINE
  5
76
  8
0
  6
CONTINUOUS
 10
192.5
 20
138.5
 30
0.0
 11
192.5
 21
-138.5
 31
0.0
  0
LINE
  5
77
  8
0
  6
CONTINUOUS
 10
-192.5
 20
-138.5
 30
0.0
 11
192.5
 21
-138.5
 31
0.0
  0
LINE
  5
78
  8
0
  6
CONTINUOUS
 10
-192.5
 20
138.5
 30
0.0
 11
192.5
 21
138.5
 31
0.0
  0
LINE
  5
79
  8
0
  6
CONTINUOUS
 10
-192.5
 20
123.5
 30
0.0
 11
192.5
 21
123.5
 31
0.0
  0
TEXT
  5
7A
  8
0
 10
-3.7000000000000002
 20
-112.199997
 30
0.0
 40
2.5
  1
充電コントロール機能付　
  0
TEXT
  5
7B
  8
0
 10
-36.700001
 20
-112.199997
 30
0.0
 40
2.5
  1
ＤＮＨ３２１ＰK
  0
TEXT
  5
7C
  8
0
 10
8.3000000000000007
 20
-107.199997
 30
0.0
 40
2.5
  1
標準型
  0
TEXT
  5
7D
  8
0
 10
-34.900002000000001
 20
-107.199997
 30
0.0
 40
2.5
  1
ＤＮＨ３２１K
  0
TEXT
  5
7E
  8
0
 10
8.1999999999999993
 20
-102.300003
 30
0.0
 40
2.5
  1
タイプ
  0
TEXT
  5
7F
  8
0
 10
-27.700001
 20
-102.199997
 30
0.0
 40
2.5
  1
品番
  0
LINE
  5
80
  8
0
  6
CONTINUOUS
 10
-12.5
 20
-113.5
 30
0.0
 11
-12.5
 21
-98.500000000000014
 31
0.0
  0
LINE
  5
81
  8
0
  6
CONTINUOUS
 10
-37.5
 20
-103.5
 30
0.0
 11
37.5
 21
-103.5
 31
0.0
  0
LINE
  5
82
  8
0
  6
CONTINUOUS
 10
-37.5
 20
-108.5
 30
0.0
 11
37.5
 21
-108.5
 31
0.0
  0
LINE
  5
83
  8
0
  6
CONTINUOUS
 10
-192.5
 20
138.5
 30
0.0
 11
-192.5
 21
-138.5
 31
0.0
  0
TEXT
  5
84
  8
0
 10
-176.300003
 20
127.0
 30
0.0
 40
8.0
  1
（ＥＶ・ＰＨＥＶ充電用）ＥＬＳＥＥＶ　ｈｅｋｉａ　充電器本体（Ｍｏｄｅ３）
  0
TEXT
  5
85
  8
0
 10
147.199997
 20
-133.5
 30
0.0
 40
3.5
  1
（DCS00065）
  0
LINE
  5
86
  8
0
  6
CONTINUOUS
 10
-37.5
 20
-113.5
 30
0.0
 11
37.5
 21
-113.5
 31
0.0
  0
LINE
  5
87
  8
0
  6
CONTINUOUS
 10
37.5
 20
-113.5
 30
0.0
 11
37.5
 21
-98.500000000000014
 31
0.0
  0
LINE
  5
88
  8
0
  6
CONTINUOUS
 10
37.5
 20
-98.500000000000014
 30
0.0
 11
-37.5
 21
-98.500000000000014
 31
0.0
  0
LINE
  5
89
  8
0
  6
CONTINUOUS
 10
-37.5
 20
-98.500000000000014
 30
0.0
 11
-37.5
 21
-113.5
 31
0.0
  0
LINE
  5
8A
  8
0
  6
CONTINUOUS
 10
107.400002
 20
11.9
 30
0.0
 11
97.900002000000015
 21
11.9
 31
0.0
  0
LINE
  5
8B
  8
0
  6
CONTINUOUS
 10
94.900002000000001
 20
72.5
 30
0.0
 11
94.900002000000001
 21
72.5
 31
0.0
  0
LINE
  5
8C
  8
0
  6
CONTINUOUS
 10
92.800003000000004
 20
66.699996999999996
 30
0.0
 11
92.800003000000004
 21
66.699996999999996
 31
0.0
  0
LINE
  5
8D
  8
0
  6
CONTINUOUS
 10
97.099997999999999
 20
72.699996999999996
 30
0.0
 11
97.099997999999999
 21
72.699996999999996
 31
0.0
  0
LINE
  5
8E
  8
0
  6
CONTINUOUS
 10
93.099997999999985
 20
67.0
 30
0.0
 11
93.099997999999985
 21
67.0
 31
0.0
  0
LINE
  5
8F
  8
0
  6
CONTINUOUS
 10
92.900001999999986
 20
66.699996999999996
 30
0.0
 11
92.900001999999986
 21
66.599997999999999
 31
0.0
  0
LINE
  5
90
  8
0
  6
CONTINUOUS
 10
93.0
 20
66.699996999999996
 30
0.0
 11
93.0
 21
66.699996999999996
 31
0.0
  0
LINE
  5
91
  8
0
  6
CONTINUOUS
 10
101.0
 20
67.300003000000004
 30
0.0
 11
101.0
 21
67.300003000000004
 31
0.0
  0
LINE
  5
92
  8
0
  6
CONTINUOUS
 10
108.5
 20
13.4
 30
0.0
 11
107.400002
 21
13.4
 31
0.0
  0
LINE
  5
93
  8
0
  6
CONTINUOUS
 10
97.900002000000015
 20
13.4
 30
0.0
 11
96.19999700000001
 21
13.4
 31
0.0
  0
LINE
  5
94
  8
0
  6
CONTINUOUS
 10
93.599997999999999
 20
13.4
 30
0.0
 11
92.400002000000001
 21
13.4
 31
0.0
  0
LINE
  5
95
  8
0
  6
CONTINUOUS
 10
96.0
 20
13.4
 30
0.0
 11
93.800003000000004
 21
13.4
 31
0.0
  0
LINE
  5
96
  8
0
  6
CONTINUOUS
 10
108.5
 20
13.4
 30
0.0
 11
107.400002
 21
13.4
 31
0.0
  0
LINE
  5
97
  8
0
  6
CONTINUOUS
 10
97.900002000000015
 20
13.4
 30
0.0
 11
96.19999700000001
 21
13.4
 31
0.0
  0
LINE
  5
98
  8
0
  6
CONTINUOUS
 10
93.599997999999999
 20
13.4
 30
0.0
 11
92.400002000000001
 21
13.4
 31
0.0
  0
LINE
  5
99
  8
0
  6
CONTINUOUS
 10
92.800003000000004
 20
14.0
 30
0.0
 11
93.599997999999999
 21
14.0
 31
0.0
  0
LINE
  5
9A
  8
0
  6
CONTINUOUS
 10
96.19999700000001
 20
14.0
 30
0.0
 11
97.900002000000015
 21
14.0
 31
0.0
  0
LINE
  5
9B
  8
0
  6
CONTINUOUS
 10
107.400002
 20
14.0
 30
0.0
 11
108.0
 21
14.0
 31
0.0
  0
LINE
  5
9C
  8
0
  6
CONTINUOUS
 10
107.400002
 20
14.0
 30
0.0
 11
107.400002
 21
14.0
 31
0.0
  0
LINE
  5
9D
  8
0
  6
CONTINUOUS
 10
97.900002000000015
 20
14.0
 30
0.0
 11
97.800003000000004
 21
14.0
 31
0.0
  0
LINE
  5
9E
  8
0
  6
CONTINUOUS
 10
97.800003000000004
 20
14.300000000000001
 30
0.0
 11
93.199996999999996
 21
14.300000000000001
 31
0.0
  0
LINE
  5
9F
  8
0
  6
CONTINUOUS
 10
107.400002
 20
14.300000000000001
 30
0.0
 11
107.699997
 21
14.300000000000001
 31
0.0
  0
LINE
  5
A0
  8
0
  6
CONTINUOUS
 10
108.199997
 20
14.300000000000001
 30
0.0
 11
108.0
 21
14.300000000000001
 31
0.0
  0
LINE
  5
A1
  8
0
  6
CONTINUOUS
 10
107.699997
 20
14.300000000000001
 30
0.0
 11
107.400002
 21
14.300000000000001
 31
0.0
  0
LINE
  5
A2
  8
0
  6
CONTINUOUS
 10
92.800003000000004
 20
14.300000000000001
 30
0.0
 11
92.699996999999996
 21
14.300000000000001
 31
0.0
  0
LINE
  5
A3
  8
0
  6
CONTINUOUS
 10
93.199996999999996
 20
14.300000000000001
 30
0.0
 11
97.800003000000004
 21
14.300000000000001
 31
0.0
  0
LINE
  5
A4
  8
0
  6
CONTINUOUS
 10
107.400002
 20
14.4
 30
0.0
 11
107.400002
 21
14.4
 31
0.0
  0
LINE
  5
A5
  8
0
  6
CONTINUOUS
 10
97.900002000000015
 20
14.5
 30
0.0
 11
97.900002000000015
 21
14.5
 31
0.0
  0
LINE
  5
A6
  8
0
  6
CONTINUOUS
 10
97.900002000000015
 20
14.6
 30
0.0
 11
97.900002000000015
 21
14.6
 31
0.0
  0
LINE
  5
A7
  8
0
  6
CONTINUOUS
 10
93.099997999999985
 20
14.699999999999999
 30
0.0
 11
96.900002000000001
 21
14.699999999999999
 31
0.0
  0
LINE
  5
A8
  8
0
  6
CONTINUOUS
 10
93.0
 20
14.699999999999999
 30
0.0
 11
93.099997999999985
 21
14.699999999999999
 31
0.0
  0
LINE
  5
A9
  8
0
  6
CONTINUOUS
 10
93.099997999999985
 20
14.800000000000001
 30
0.0
 11
96.599998000000014
 21
14.800000000000001
 31
0.0
  0
LINE
  5
AA
  8
0
  6
CONTINUOUS
 10
97.900002000000015
 20
14.9
 30
0.0
 11
97.900002000000015
 21
14.9
 31
0.0
  0
LINE
  5
AB
  8
0
  6
CONTINUOUS
 10
93.499999999999986
 20
15.0
 30
0.0
 11
97.900002000000015
 21
15.0
 31
0.0
  0
LINE
  5
AC
  8
0
  6
CONTINUOUS
 10
93.099997999999985
 20
15.0
 30
0.0
 11
93.300003000000004
 21
15.0
 31
0.0
  0
LINE
  5
AD
  8
0
  6
CONTINUOUS
 10
93.300003000000004
 20
15.1
 30
0.0
 11
93.0
 21
15.1
 31
0.0
  0
LINE
  5
AE
  8
0
  6
CONTINUOUS
 10
95.5
 20
15.300000000000001
 30
0.0
 11
95.400001999999986
 21
15.300000000000001
 31
0.0
  0
LINE
  5
AF
  8
0
  6
CONTINUOUS
 10
93.900002000000015
 20
15.300000000000001
 30
0.0
 11
93.800003000000004
 21
15.300000000000001
 31
0.0
  0
LINE
  5
B0
  8
0
  6
CONTINUOUS
 10
95.5
 20
15.300000000000001
 30
0.0
 11
95.400001999999986
 21
15.300000000000001
 31
0.0
  0
LINE
  5
B1
  8
0
  6
CONTINUOUS
 10
93.900002000000015
 20
15.300000000000001
 30
0.0
 11
93.800003000000004
 21
15.300000000000001
 31
0.0
  0
LINE
  5
B2
  8
0
  6
CONTINUOUS
 10
95.599997999999985
 20
15.4
 30
0.0
 11
95.5
 21
15.4
 31
0.0
  0
LINE
  5
B3
  8
0
  6
CONTINUOUS
 10
95.300003000000004
 20
15.4
 30
0.0
 11
95.300003000000004
 21
15.4
 31
0.0
  0
LINE
  5
B4
  8
0
  6
CONTINUOUS
 10
94.0
 20
15.4
 30
0.0
 11
93.900002000000015
 21
15.4
 31
0.0
  0
LINE
  5
B5
  8
0
  6
CONTINUOUS
 10
93.699996999999996
 20
15.4
 30
0.0
 11
93.699996999999996
 21
15.4
 31
0.0
  0
LINE
  5
B6
  8
0
  6
CONTINUOUS
 10
95.599997999999985
 20
15.4
 30
0.0
 11
95.5
 21
15.4
 31
0.0
  0
LINE
  5
B7
  8
0
  6
CONTINUOUS
 10
95.300003000000004
 20
15.4
 30
0.0
 11
95.300003000000004
 21
15.4
 31
0.0
  0
LINE
  5
B8
  8
0
  6
CONTINUOUS
 10
94.0
 20
15.4
 30
0.0
 11
93.900002000000015
 21
15.4
 31
0.0
  0
LINE
  5
B9
  8
0
  6
CONTINUOUS
 10
93.699996999999996
 20
15.4
 30
0.0
 11
93.699996999999996
 21
15.4
 31
0.0
  0
LINE
  5
BA
  8
0
  6
CONTINUOUS
 10
93.699996999999996
 20
15.5
 30
0.0
 11
93.699996999999996
 21
15.5
 31
0.0
  0
LINE
  5
BB
  8
0
  6
CONTINUOUS
 10
93.900002000000015
 20
15.5
 30
0.0
 11
94.0
 21
15.5
 31
0.0
  0
LINE
  5
BC
  8
0
  6
CONTINUOUS
 10
95.300003000000004
 20
15.5
 30
0.0
 11
95.300003000000004
 21
15.5
 31
0.0
  0
LINE
  5
BD
  8
0
  6
CONTINUOUS
 10
95.5
 20
15.5
 30
0.0
 11
95.599997999999985
 21
15.5
 31
0.0
  0
LINE
  5
BE
  8
0
  6
CONTINUOUS
 10
93.699996999999996
 20
15.5
 30
0.0
 11
93.699996999999996
 21
15.5
 31
0.0
  0
LINE
  5
BF
  8
0
  6
CONTINUOUS
 10
93.900002000000015
 20
15.5
 30
0.0
 11
94.0
 21
15.5
 31
0.0
  0
LINE
  5
C0
  8
0
  6
CONTINUOUS
 10
95.300003000000004
 20
15.5
 30
0.0
 11
95.300003000000004
 21
15.5
 31
0.0
  0
LINE
  5
C1
  8
0
  6
CONTINUOUS
 10
95.5
 20
15.5
 30
0.0
 11
95.599997999999985
 21
15.5
 31
0.0
  0
LINE
  5
C2
  8
0
  6
CONTINUOUS
 10
93.800003000000004
 20
15.6
 30
0.0
 11
93.900002000000015
 21
15.6
 31
0.0
  0
LINE
  5
C3
  8
0
  6
CONTINUOUS
 10
95.400001999999986
 20
15.6
 30
0.0
 11
95.5
 21
15.6
 31
0.0
  0
LINE
  5
C4
  8
0
  6
CONTINUOUS
 10
93.800003000000004
 20
15.6
 30
0.0
 11
93.900002000000015
 21
15.6
 31
0.0
  0
LINE
  5
C5
  8
0
  6
CONTINUOUS
 10
95.400001999999986
 20
15.6
 30
0.0
 11
95.5
 21
15.6
 31
0.0
  0
LINE
  5
C6
  8
0
  6
CONTINUOUS
 10
93.099997999999985
 20
16.299999
 30
0.0
 11
93.0
 21
16.299999
 31
0.0
  0
LINE
  5
C7
  8
0
  6
CONTINUOUS
 10
93.300003000000004
 20
16.299999
 30
0.0
 11
93.099997999999985
 21
16.299999
 31
0.0
  0
LINE
  5
C8
  8
0
  6
CONTINUOUS
 10
92.699996999999996
 20
16.600000000000001
 30
0.0
 11
92.800003000000004
 21
16.600000000000001
 31
0.0
  0
LINE
  5
C9
  8
0
  6
CONTINUOUS
 10
108.0
 20
16.600000000000001
 30
0.0
 11
108.199997
 21
16.600000000000001
 31
0.0
  0
LINE
  5
CA
  8
0
  6
CONTINUOUS
 10
92.800003000000004
 20
16.600000000000001
 30
0.0
 11
92.800003000000004
 21
16.600000000000001
 31
0.0
  0
LINE
  5
CB
  8
0
  6
CONTINUOUS
 10
97.900002000000015
 20
14.800000000000001
 30
0.0
 11
97.900002000000015
 21
14.800000000000001
 31
0.0
  0
LINE
  5
CC
  8
0
  6
CONTINUOUS
 10
92.800003000000004
 20
16.600000000000001
 30
0.0
 11
92.800003000000004
 21
16.600000000000001
 31
0.0
  0
LINE
  5
CD
  8
0
  6
CONTINUOUS
 10
94.699996999999996
 20
72.900002000000001
 30
0.0
 11
94.699996999999996
 21
72.900002000000001
 31
0.0
  0
LINE
  5
CE
  8
0
  6
CONTINUOUS
 10
108.0
 20
64.5
 30
0.0
 11
108.0
 21
64.5
 31
0.0
  0
LINE
  5
CF
  8
0
  6
CONTINUOUS
 10
101.099998
 20
17.399999999999999
 30
0.0
 11
99.800003000000004
 21
17.399999999999999
 31
0.0
  0
LINE
  5
D0
  8
0
  6
CONTINUOUS
 10
99.800003000000004
 20
18.100000000000001
 30
0.0
 11
101.099998
 21
18.100000000000001
 31
0.0
  0
LINE
  5
D1
  8
0
  6
CONTINUOUS
 10
93.699996999999996
 20
15.5
 30
0.0
 11
93.699996999999996
 21
15.5
 31
0.0
  0
LINE
  5
D2
  8
0
  6
CONTINUOUS
 10
93.900002000000015
 20
15.300000000000001
 30
0.0
 11
93.900002000000015
 21
15.300000000000001
 31
0.0
  0
LINE
  5
D3
  8
0
  6
CONTINUOUS
 10
92.800003000000004
 20
16.600000000000001
 30
0.0
 11
92.900001999999986
 21
16.5
 31
0.0
  0
LINE
  5
D4
  8
0
  6
CONTINUOUS
 10
93.800003000000004
 20
15.6
 30
0.0
 11
93.800003000000004
 21
15.6
 31
0.0
  0
LINE
  5
D5
  8
0
  6
CONTINUOUS
 10
94.0
 20
15.4
 30
0.0
 11
94.0
 21
15.4
 31
0.0
  0
LINE
  5
D6
  8
0
  6
CONTINUOUS
 10
95.300003000000004
 20
15.5
 30
0.0
 11
95.300003000000004
 21
15.5
 31
0.0
  0
LINE
  5
D7
  8
0
  6
CONTINUOUS
 10
95.5
 20
15.300000000000001
 30
0.0
 11
95.5
 21
15.300000000000001
 31
0.0
  0
LINE
  5
D8
  8
0
  6
CONTINUOUS
 10
95.400001999999986
 20
15.6
 30
0.0
 11
95.400001999999986
 21
15.6
 31
0.0
  0
LINE
  5
D9
  8
0
  6
CONTINUOUS
 10
95.599997999999985
 20
15.4
 30
0.0
 11
95.599997999999985
 21
15.4
 31
0.0
  0
LINE
  5
DA
  8
0
  6
CONTINUOUS
 10
96.900002000000001
 20
72.900002000000001
 30
0.0
 11
96.900002000000001
 21
72.900002000000001
 31
0.0
  0
LINE
  5
DB
  8
0
  6
CONTINUOUS
 10
99.099998000000014
 20
72.900002000000001
 30
0.0
 11
99.099998000000014
 21
72.900002000000001
 31
0.0
  0
LINE
  5
DC
  8
0
  6
CONTINUOUS
 10
101.5
 20
72.900002000000001
 30
0.0
 11
101.5
 21
72.900002000000001
 31
0.0
  0
LINE
  5
DD
  8
0
  6
CONTINUOUS
 10
92.800003000000004
 20
66.599997999999999
 30
0.0
 11
92.800003000000004
 21
66.599997999999999
 31
0.0
  0
LINE
  5
DE
  8
0
  6
CONTINUOUS
 10
103.800003
 20
72.900002000000001
 30
0.0
 11
103.800003
 21
72.900002000000001
 31
0.0
  0
LINE
  5
DF
  8
0
  6
CONTINUOUS
 10
107.800003
 20
64.5
 30
0.0
 11
107.800003
 21
64.5
 31
0.0
  0
LINE
  5
E0
  8
0
  6
CONTINUOUS
 10
108.0
 20
64.5
 30
0.0
 11
108.0
 21
64.5
 31
0.0
  0
LINE
  5
E1
  8
0
  6
CONTINUOUS
 10
107.699997
 20
64.199996999999996
 30
0.0
 11
107.699997
 21
64.199996999999996
 31
0.0
  0
LINE
  5
E2
  8
0
  6
CONTINUOUS
 10
107.400002
 20
24.899999999999999
 30
0.0
 11
99.099998000000014
 21
24.899999999999999
 31
0.0
  0
LINE
  5
E3
  8
0
  6
CONTINUOUS
 10
106.099998
 20
25.100000000000001
 30
0.0
 11
105.900002
 21
25.100000000000001
 31
0.0
  0
LINE
  5
E4
  8
0
  6
CONTINUOUS
 10
104.0
 20
25.100000000000001
 30
0.0
 11
103.800003
 21
25.100000000000001
 31
0.0
  0
LINE
  5
E5
  8
0
  6
CONTINUOUS
 10
101.699997
 20
25.100000000000001
 30
0.0
 11
101.5
 21
25.100000000000001
 31
0.0
  0
LINE
  5
E6
  8
0
  6
CONTINUOUS
 10
99.300003000000004
 20
25.100000000000001
 30
0.0
 11
99.099998000000014
 21
25.100000000000001
 31
0.0
  0
LINE
  5
E7
  8
0
  6
CONTINUOUS
 10
96.099997999999999
 20
25.5
 30
0.0
 11
96.0
 21
25.5
 31
0.0
  0
LINE
  5
E8
  8
0
  6
CONTINUOUS
 10
95.300003000000004
 20
25.5
 30
0.0
 11
95.199996999999996
 21
25.5
 31
0.0
  0
LINE
  5
E9
  8
0
  6
CONTINUOUS
 10
96.099997999999999
 20
25.5
 30
0.0
 11
96.0
 21
25.5
 31
0.0
  0
LINE
  5
EA
  8
0
  6
CONTINUOUS
 10
95.300003000000004
 20
25.5
 30
0.0
 11
95.199996999999996
 21
25.5
 31
0.0
  0
LINE
  5
EB
  8
0
  6
CONTINUOUS
 10
96.19999700000001
 20
25.600000000000001
 30
0.0
 11
96.099997999999999
 21
25.600000000000001
 31
0.0
  0
LINE
  5
EC
  8
0
  6
CONTINUOUS
 10
95.900002000000001
 20
25.600000000000001
 30
0.0
 11
95.900002000000001
 21
25.600000000000001
 31
0.0
  0
LINE
  5
ED
  8
0
  6
CONTINUOUS
 10
95.400001999999986
 20
25.600000000000001
 30
0.0
 11
95.300003000000004
 21
25.600000000000001
 31
0.0
  0
LINE
  5
EE
  8
0
  6
CONTINUOUS
 10
95.099998000000014
 20
25.600000000000001
 30
0.0
 11
95.099998000000014
 21
25.600000000000001
 31
0.0
  0
LINE
  5
EF
  8
0
  6
CONTINUOUS
 10
96.19999700000001
 20
25.600000000000001
 30
0.0
 11
96.099997999999999
 21
25.600000000000001
 31
0.0
  0
LINE
  5
F0
  8
0
  6
CONTINUOUS
 10
95.900002000000001
 20
25.600000000000001
 30
0.0
 11
95.900002000000001
 21
25.600000000000001
 31
0.0
  0
LINE
  5
F1
  8
0
  6
CONTINUOUS
 10
95.400001999999986
 20
25.600000000000001
 30
0.0
 11
95.300003000000004
 21
25.600000000000001
 31
0.0
  0
LINE
  5
F2
  8
0
  6
CONTINUOUS
 10
95.099998000000014
 20
25.600000000000001
 30
0.0
 11
95.099998000000014
 21
25.600000000000001
 31
0.0
  0
LINE
  5
F3
  8
0
  6
CONTINUOUS
 10
95.099998000000014
 20
25.700001
 30
0.0
 11
95.099998000000014
 21
25.700001
 31
0.0
  0
LINE
  5
F4
  8
0
  6
CONTINUOUS
 10
95.300003000000004
 20
25.700001
 30
0.0
 11
95.400001999999986
 21
25.700001
 31
0.0
  0
LINE
  5
F5
  8
0
  6
CONTINUOUS
 10
95.900002000000001
 20
25.700001
 30
0.0
 11
95.900002000000001
 21
25.700001
 31
0.0
  0
LINE
  5
F6
  8
0
  6
CONTINUOUS
 10
96.099997999999999
 20
25.700001
 30
0.0
 11
96.19999700000001
 21
25.700001
 31
0.0
  0
LINE
  5
F7
  8
0
  6
CONTINUOUS
 10
95.099998000000014
 20
25.700001
 30
0.0
 11
95.099998000000014
 21
25.700001
 31
0.0
  0
LINE
  5
F8
  8
0
  6
CONTINUOUS
 10
95.300003000000004
 20
25.700001
 30
0.0
 11
95.400001999999986
 21
25.700001
 31
0.0
  0
LINE
  5
F9
  8
0
  6
CONTINUOUS
 10
95.900002000000001
 20
25.700001
 30
0.0
 11
95.900002000000001
 21
25.700001
 31
0.0
  0
LINE
  5
FA
  8
0
  6
CONTINUOUS
 10
96.099997999999999
 20
25.700001
 30
0.0
 11
96.19999700000001
 21
25.700001
 31
0.0
  0
LINE
  5
FB
  8
0
  6
CONTINUOUS
 10
95.199996999999996
 20
25.799999
 30
0.0
 11
95.300003000000004
 21
25.799999
 31
0.0
  0
LINE
  5
FC
  8
0
  6
CONTINUOUS
 10
96.0
 20
25.799999
 30
0.0
 11
96.099997999999999
 21
25.799999
 31
0.0
  0
LINE
  5
FD
  8
0
  6
CONTINUOUS
 10
95.199996999999996
 20
25.899999999999999
 30
0.0
 11
95.300003000000004
 21
25.899999999999999
 31
0.0
  0
LINE
  5
FE
  8
0
  6
CONTINUOUS
 10
96.0
 20
25.899999999999999
 30
0.0
 11
96.099997999999999
 21
25.899999999999999
 31
0.0
  0
LINE
  5
FF
  8
0
  6
CONTINUOUS
 10
93.099997999999985
 20
26.200001
 30
0.0
 11
93.300003000000004
 21
26.200001
 31
0.0
  0
LINE
  5
100
  8
0
  6
CONTINUOUS
 10
93.300003000000004
 20
26.200001
 30
0.0
 11
93.099997999999985
 21
26.200001
 31
0.0
  0
LINE
  5
101
  8
0
  6
CONTINUOUS
 10
93.300003000000004
 20
26.5
 30
0.0
 11
93.300003000000004
 21
26.5
 31
0.0
  0
LINE
  5
102
  8
0
  6
CONTINUOUS
 10
93.099997999999985
 20
26.600000000000001
 30
0.0
 11
93.400002000000001
 21
26.600000000000001
 31
0.0
  0
LINE
  5
103
  8
0
  6
CONTINUOUS
 10
93.099997999999985
 20
26.600000000000001
 30
0.0
 11
93.400002000000001
 21
26.600000000000001
 31
0.0
  0
LINE
  5
104
  8
0
  6
CONTINUOUS
 10
98.69999700000001
 20
26.600000000000001
 30
0.0
 11
93.499999999999986
 21
26.600000000000001
 31
0.0
  0
LINE
  5
105
  8
0
  6
CONTINUOUS
 10
93.099997999999985
 20
26.600000000000001
 30
0.0
 11
93.099997999999985
 21
26.600000000000001
 31
0.0
  0
LINE
  5
106
  8
0
  6
CONTINUOUS
 10
95.099998000000014
 20
25.700001
 30
0.0
 11
95.099998000000014
 21
25.700001
 31
0.0
  0
LINE
  5
107
  8
0
  6
CONTINUOUS
 10
95.300003000000004
 20
25.5
 30
0.0
 11
95.300003000000004
 21
25.5
 31
0.0
  0
LINE
  5
108
  8
0
  6
CONTINUOUS
 10
95.199996999999996
 20
25.799999
 30
0.0
 11
95.199996999999996
 21
25.899999999999999
 31
0.0
  0
LINE
  5
109
  8
0
  6
CONTINUOUS
 10
95.400001999999986
 20
25.600000000000001
 30
0.0
 11
95.400001999999986
 21
25.600000000000001
 31
0.0
  0
LINE
  5
10A
  8
0
  6
CONTINUOUS
 10
95.900002000000001
 20
25.700001
 30
0.0
 11
95.900002000000001
 21
25.700001
 31
0.0
  0
LINE
  5
10B
  8
0
  6
CONTINUOUS
 10
96.099997999999999
 20
25.5
 30
0.0
 11
96.099997999999999
 21
25.5
 31
0.0
  0
LINE
  5
10C
  8
0
  6
CONTINUOUS
 10
96.0
 20
25.799999
 30
0.0
 11
96.0
 21
25.899999999999999
 31
0.0
  0
LINE
  5
10D
  8
0
  6
CONTINUOUS
 10
96.19999700000001
 20
25.600000000000001
 30
0.0
 11
96.19999700000001
 21
25.600000000000001
 31
0.0
  0
LINE
  5
10E
  8
0
  6
CONTINUOUS
 10
108.0
 20
14.0
 30
0.0
 11
108.0
 21
14.0
 31
0.0
  0
LINE
  5
10F
  8
0
  6
CONTINUOUS
 10
97.800003000000004
 20
14.0
 30
0.0
 11
97.800003000000004
 21
14.0
 31
0.0
  0
LINE
  5
110
  8
0
  6
CONTINUOUS
 10
105.900002
 20
72.900002000000001
 30
0.0
 11
105.900002
 21
72.900002000000001
 31
0.0
  0
LINE
  5
111
  8
0
  6
CONTINUOUS
 10
97.099997999999999
 20
26.799999
 30
0.0
 11
96.900002000000001
 21
26.799999
 31
0.0
  0
LINE
  5
112
  8
0
  6
CONTINUOUS
 10
94.900002000000001
 20
26.799999
 30
0.0
 11
94.699996999999996
 21
26.799999
 31
0.0
  0
LINE
  5
113
  8
0
  6
CONTINUOUS
 10
94.900002000000001
 20
26.799999
 30
0.0
 11
94.900002000000001
 21
26.799999
 31
0.0
  0
LINE
  5
114
  8
0
  6
CONTINUOUS
 10
92.199996999999996
 20
13.5
 30
0.0
 11
92.199996999999996
 21
73.599997999999999
 31
0.0
  0
LINE
  5
115
  8
0
  6
CONTINUOUS
 10
92.199996999999996
 20
13.5
 30
0.0
 11
92.199996999999996
 21
73.599997999999999
 31
0.0
  0
LINE
  5
116
  8
0
  6
CONTINUOUS
 10
92.699996999999996
 20
14.300000000000001
 30
0.0
 11
92.699996999999996
 21
16.600000000000001
 31
0.0
  0
LINE
  5
117
  8
0
  6
CONTINUOUS
 10
92.800003000000004
 20
14.300000000000001
 30
0.0
 11
92.800003000000004
 21
14.0
 31
0.0
  0
LINE
  5
118
  8
0
  6
CONTINUOUS
 10
92.800003000000004
 20
16.600000000000001
 30
0.0
 11
92.800003000000004
 21
73.099997999999985
 31
0.0
  0
LINE
  5
119
  8
0
  6
CONTINUOUS
 10
92.900001999999986
 20
14.300000000000001
 30
0.0
 11
92.900001999999986
 21
14.0
 31
0.0
  0
LINE
  5
11A
  8
0
  6
CONTINUOUS
 10
92.900001999999986
 20
64.5
 30
0.0
 11
92.900001999999986
 21
64.5
 31
0.0
  0
LINE
  5
11B
  8
0
  6
CONTINUOUS
 10
92.900001999999986
 20
66.599997999999999
 30
0.0
 11
92.900001999999986
 21
66.599997999999999
 31
0.0
  0
LINE
  5
11C
  8
0
  6
CONTINUOUS
 10
92.900001999999986
 20
64.5
 30
0.0
 11
92.900001999999986
 21
66.599997999999999
 31
0.0
  0
LINE
  5
11D
  8
0
  6
CONTINUOUS
 10
92.900001999999986
 20
64.5
 30
0.0
 11
92.900001999999986
 21
64.5
 31
0.0
  0
LINE
  5
11E
  8
0
  6
CONTINUOUS
 10
92.900001999999986
 20
66.699996999999996
 30
0.0
 11
92.900001999999986
 21
66.599997999999999
 31
0.0
  0
LINE
  5
11F
  8
0
  6
CONTINUOUS
 10
93.0
 20
16.299999
 30
0.0
 11
93.0
 21
14.699999999999999
 31
0.0
  0
LINE
  5
120
  8
0
  6
CONTINUOUS
 10
93.0
 20
64.5
 30
0.0
 11
93.0
 21
66.699996999999996
 31
0.0
  0
LINE
  5
121
  8
0
  6
CONTINUOUS
 10
93.0
 20
64.5
 30
0.0
 11
93.0
 21
66.699996999999996
 31
0.0
  0
LINE
  5
122
  8
0
  6
CONTINUOUS
 10
93.099997999999985
 20
14.800000000000001
 30
0.0
 11
93.099997999999985
 21
15.0
 31
0.0
  0
LINE
  5
123
  8
0
  6
CONTINUOUS
 10
93.099997999999985
 20
72.800003000000004
 30
0.0
 11
93.099997999999985
 21
67.0
 31
0.0
  0
LINE
  5
124
  8
0
  6
CONTINUOUS
 10
93.099997999999985
 20
64.199996999999996
 30
0.0
 11
93.099997999999985
 21
16.299999
 31
0.0
  0
LINE
  5
125
  8
0
  6
CONTINUOUS
 10
93.099997999999985
 20
14.6
 30
0.0
 11
93.099997999999985
 21
14.300000000000001
 31
0.0
  0
LINE
  5
126
  8
0
  6
CONTINUOUS
 10
93.099997999999985
 20
14.300000000000001
 30
0.0
 11
93.099997999999985
 21
14.6
 31
0.0
  0
LINE
  5
127
  8
0
  6
CONTINUOUS
 10
93.099997999999985
 20
16.299999
 30
0.0
 11
93.099997999999985
 21
26.200001
 31
0.0
  0
LINE
  5
128
  8
0
  6
CONTINUOUS
 10
93.099997999999985
 20
26.600000000000001
 30
0.0
 11
93.099997999999985
 21
64.199996999999996
 31
0.0
  0
LINE
  5
129
  8
0
  6
CONTINUOUS
 10
93.099997999999985
 20
67.0
 30
0.0
 11
93.099997999999985
 21
72.5
 31
0.0
  0
LINE
  5
12A
  8
0
  6
CONTINUOUS
 10
93.199996999999996
 20
14.800000000000001
 30
0.0
 11
93.199996999999996
 21
15.0
 31
0.0
  0
LINE
  5
12B
  8
0
  6
CONTINUOUS
 10
93.300003000000004
 20
14.800000000000001
 30
0.0
 11
93.300003000000004
 21
26.5
 31
0.0
  0
LINE
  5
12C
  8
0
  6
CONTINUOUS
 10
93.400002000000001
 20
64.400002000000001
 30
0.0
 11
93.400002000000001
 21
66.800003000000004
 31
0.0
  0
LINE
  5
12D
  8
0
  6
CONTINUOUS
 10
93.400002000000001
 20
64.400002000000001
 30
0.0
 11
93.400002000000001
 21
66.800003000000004
 31
0.0
  0
LINE
  5
12E
  8
0
  6
CONTINUOUS
 10
97.099997999999999
 20
26.799999
 30
0.0
 11
97.099997999999999
 21
26.799999
 31
0.0
  0
LINE
  5
12F
  8
0
  6
CONTINUOUS
 10
99.300003000000004
 20
25.100000000000001
 30
0.0
 11
99.300003000000004
 21
25.100000000000001
 31
0.0
  0
LINE
  5
130
  8
0
  6
CONTINUOUS
 10
93.699996999999996
 20
15.4
 30
0.0
 11
93.699996999999996
 21
15.5
 31
0.0
  0
LINE
  5
131
  8
0
  6
CONTINUOUS
 10
93.699996999999996
 20
15.4
 30
0.0
 11
93.699996999999996
 21
15.5
 31
0.0
  0
LINE
  5
132
  8
0
  6
CONTINUOUS
 10
93.800003000000004
 20
15.300000000000001
 30
0.0
 11
93.800003000000004
 21
15.4
 31
0.0
  0
LINE
  5
133
  8
0
  6
CONTINUOUS
 10
93.800003000000004
 20
15.6
 30
0.0
 11
93.800003000000004
 21
15.6
 31
0.0
  0
LINE
  5
134
  8
0
  6
CONTINUOUS
 10
93.800003000000004
 20
15.300000000000001
 30
0.0
 11
93.800003000000004
 21
15.4
 31
0.0
  0
LINE
  5
135
  8
0
  6
CONTINUOUS
 10
93.800003000000004
 20
15.6
 30
0.0
 11
93.800003000000004
 21
15.6
 31
0.0
  0
LINE
  5
136
  8
0
  6
CONTINUOUS
 10
93.900002000000015
 20
15.6
 30
0.0
 11
93.900002000000015
 21
15.6
 31
0.0
  0
LINE
  5
137
  8
0
  6
CONTINUOUS
 10
93.900002000000015
 20
15.4
 30
0.0
 11
93.900002000000015
 21
15.300000000000001
 31
0.0
  0
LINE
  5
138
  8
0
  6
CONTINUOUS
 10
93.900002000000015
 20
15.6
 30
0.0
 11
93.900002000000015
 21
15.6
 31
0.0
  0
LINE
  5
139
  8
0
  6
CONTINUOUS
 10
93.900002000000015
 20
15.4
 30
0.0
 11
93.900002000000015
 21
15.300000000000001
 31
0.0
  0
LINE
  5
13A
  8
0
  6
CONTINUOUS
 10
94.0
 20
15.5
 30
0.0
 11
94.0
 21
15.4
 31
0.0
  0
LINE
  5
13B
  8
0
  6
CONTINUOUS
 10
94.0
 20
15.5
 30
0.0
 11
94.0
 21
15.4
 31
0.0
  0
LINE
  5
13C
  8
0
  6
CONTINUOUS
 10
94.699996999999996
 20
72.5
 30
0.0
 11
94.699996999999996
 21
72.800003000000004
 31
0.0
  0
LINE
  5
13D
  8
0
  6
CONTINUOUS
 10
94.699996999999996
 20
26.799999
 30
0.0
 11
94.699996999999996
 21
72.5
 31
0.0
  0
LINE
  5
13E
  8
0
  6
CONTINUOUS
 10
94.699996999999996
 20
72.900002000000001
 30
0.0
 11
94.699996999999996
 21
26.899999999999999
 31
0.0
  0
LINE
  5
13F
  8
0
  6
CONTINUOUS
 10
94.900002000000001
 20
26.899999999999999
 30
0.0
 11
94.900002000000001
 21
72.900002000000001
 31
0.0
  0
LINE
  5
140
  8
0
  6
CONTINUOUS
 10
94.900002000000001
 20
26.799999
 30
0.0
 11
94.900002000000001
 21
72.800003000000004
 31
0.0
  0
LINE
  5
141
  8
0
  6
CONTINUOUS
 10
95.099998000000014
 20
25.600000000000001
 30
0.0
 11
95.099998000000014
 21
25.700001
 31
0.0
  0
LINE
  5
142
  8
0
  6
CONTINUOUS
 10
95.099998000000014
 20
25.600000000000001
 30
0.0
 11
95.099998000000014
 21
25.700001
 31
0.0
  0
LINE
  5
143
  8
0
  6
CONTINUOUS
 10
95.199996999999996
 20
25.5
 30
0.0
 11
95.199996999999996
 21
25.600000000000001
 31
0.0
  0
LINE
  5
144
  8
0
  6
CONTINUOUS
 10
95.199996999999996
 20
25.799999
 30
0.0
 11
95.199996999999996
 21
25.899999999999999
 31
0.0
  0
LINE
  5
145
  8
0
  6
CONTINUOUS
 10
95.199996999999996
 20
25.5
 30
0.0
 11
95.199996999999996
 21
25.600000000000001
 31
0.0
  0
LINE
  5
146
  8
0
  6
CONTINUOUS
 10
95.199996999999996
 20
25.799999
 30
0.0
 11
95.199996999999996
 21
25.799999
 31
0.0
  0
LINE
  5
147
  8
0
  6
CONTINUOUS
 10
95.300003000000004
 20
15.4
 30
0.0
 11
95.300003000000004
 21
15.5
 31
0.0
  0
LINE
  5
148
  8
0
  6
CONTINUOUS
 10
95.300003000000004
 20
25.799999
 30
0.0
 11
95.300003000000004
 21
25.799999
 31
0.0
  0
LINE
  5
149
  8
0
  6
CONTINUOUS
 10
95.300003000000004
 20
25.600000000000001
 30
0.0
 11
95.300003000000004
 21
25.5
 31
0.0
  0
LINE
  5
14A
  8
0
  6
CONTINUOUS
 10
95.300003000000004
 20
15.4
 30
0.0
 11
95.300003000000004
 21
15.5
 31
0.0
  0
LINE
  5
14B
  8
0
  6
CONTINUOUS
 10
95.300003000000004
 20
25.899999999999999
 30
0.0
 11
95.300003000000004
 21
25.799999
 31
0.0
  0
LINE
  5
14C
  8
0
  6
CONTINUOUS
 10
95.300003000000004
 20
25.600000000000001
 30
0.0
 11
95.300003000000004
 21
25.5
 31
0.0
  0
LINE
  5
14D
  8
0
  6
CONTINUOUS
 10
95.400001999999986
 20
15.300000000000001
 30
0.0
 11
95.400001999999986
 21
15.4
 31
0.0
  0
LINE
  5
14E
  8
0
  6
CONTINUOUS
 10
95.400001999999986
 20
15.6
 30
0.0
 11
95.400001999999986
 21
15.6
 31
0.0
  0
LINE
  5
14F
  8
0
  6
CONTINUOUS
 10
95.400001999999986
 20
25.700001
 30
0.0
 11
95.400001999999986
 21
25.600000000000001
 31
0.0
  0
LINE
  5
150
  8
0
  6
CONTINUOUS
 10
95.400001999999986
 20
15.300000000000001
 30
0.0
 11
95.400001999999986
 21
15.4
 31
0.0
  0
LINE
  5
151
  8
0
  6
CONTINUOUS
 10
95.400001999999986
 20
15.6
 30
0.0
 11
95.400001999999986
 21
15.6
 31
0.0
  0
LINE
  5
152
  8
0
  6
CONTINUOUS
 10
95.400001999999986
 20
25.700001
 30
0.0
 11
95.400001999999986
 21
25.600000000000001
 31
0.0
  0
LINE
  5
153
  8
0
  6
CONTINUOUS
 10
95.5
 20
15.6
 30
0.0
 11
95.5
 21
15.6
 31
0.0
  0
LINE
  5
154
  8
0
  6
CONTINUOUS
 10
95.5
 20
15.4
 30
0.0
 11
95.5
 21
15.300000000000001
 31
0.0
  0
LINE
  5
155
  8
0
  6
CONTINUOUS
 10
95.5
 20
15.6
 30
0.0
 11
95.5
 21
15.6
 31
0.0
  0
LINE
  5
156
  8
0
  6
CONTINUOUS
 10
95.5
 20
15.4
 30
0.0
 11
95.5
 21
15.300000000000001
 31
0.0
  0
LINE
  5
157
  8
0
  6
CONTINUOUS
 10
95.599997999999985
 20
15.5
 30
0.0
 11
95.599997999999985
 21
15.4
 31
0.0
  0
LINE
  5
158
  8
0
  6
CONTINUOUS
 10
95.599997999999985
 20
14.800000000000001
 30
0.0
 11
95.599997999999985
 21
14.699999999999999
 31
0.0
  0
LINE
  5
159
  8
0
  6
CONTINUOUS
 10
95.599997999999985
 20
15.5
 30
0.0
 11
95.599997999999985
 21
15.4
 31
0.0
  0
LINE
  5
15A
  8
0
  6
CONTINUOUS
 10
95.900002000000001
 20
25.600000000000001
 30
0.0
 11
95.900002000000001
 21
25.700001
 31
0.0
  0
LINE
  5
15B
  8
0
  6
CONTINUOUS
 10
95.900002000000001
 20
25.600000000000001
 30
0.0
 11
95.900002000000001
 21
25.700001
 31
0.0
  0
LINE
  5
15C
  8
0
  6
CONTINUOUS
 10
101.699997
 20
25.100000000000001
 30
0.0
 11
101.699997
 21
25.100000000000001
 31
0.0
  0
LINE
  5
15D
  8
0
  6
CONTINUOUS
 10
107.400002
 20
14.300000000000001
 30
0.0
 11
107.400002
 21
14.300000000000001
 31
0.0
  0
LINE
  5
15E
  8
0
  6
CONTINUOUS
 10
96.0
 20
25.5
 30
0.0
 11
96.0
 21
25.600000000000001
 31
0.0
  0
LINE
  5
15F
  8
0
  6
CONTINUOUS
 10
96.0
 20
25.799999
 30
0.0
 11
96.0
 21
25.899999999999999
 31
0.0
  0
LINE
  5
160
  8
0
  6
CONTINUOUS
 10
96.0
 20
25.5
 30
0.0
 11
96.0
 21
25.600000000000001
 31
0.0
  0
LINE
  5
161
  8
0
  6
CONTINUOUS
 10
96.0
 20
25.799999
 30
0.0
 11
96.0
 21
25.799999
 31
0.0
  0
LINE
  5
162
  8
0
  6
CONTINUOUS
 10
96.099997999999999
 20
25.799999
 30
0.0
 11
96.099997999999999
 21
25.799999
 31
0.0
  0
LINE
  5
163
  8
0
  6
CONTINUOUS
 10
96.099997999999999
 20
25.600000000000001
 30
0.0
 11
96.099997999999999
 21
25.5
 31
0.0
  0
LINE
  5
164
  8
0
  6
CONTINUOUS
 10
96.099997999999999
 20
25.899999999999999
 30
0.0
 11
96.099997999999999
 21
25.799999
 31
0.0
  0
LINE
  5
165
  8
0
  6
CONTINUOUS
 10
96.099997999999999
 20
25.600000000000001
 30
0.0
 11
96.099997999999999
 21
25.5
 31
0.0
  0
LINE
  5
166
  8
0
  6
CONTINUOUS
 10
96.19999700000001
 20
25.700001
 30
0.0
 11
96.19999700000001
 21
25.600000000000001
 31
0.0
  0
LINE
  5
167
  8
0
  6
CONTINUOUS
 10
96.19999700000001
 20
25.700001
 30
0.0
 11
96.19999700000001
 21
25.600000000000001
 31
0.0
  0
LINE
  5
168
  8
0
  6
CONTINUOUS
 10
96.599998000000014
 20
15.0
 30
0.0
 11
96.599998000000014
 21
14.800000000000001
 31
0.0
  0
LINE
  5
169
  8
0
  6
CONTINUOUS
 10
96.900002000000001
 20
72.699996999999996
 30
0.0
 11
96.900002000000001
 21
72.800003000000004
 31
0.0
  0
LINE
  5
16A
  8
0
  6
CONTINUOUS
 10
96.900002000000001
 20
26.799999
 30
0.0
 11
96.900002000000001
 21
35.900002000000001
 31
0.0
  0
LINE
  5
16B
  8
0
  6
CONTINUOUS
 10
96.900002000000001
 20
39.5
 30
0.0
 11
96.900002000000001
 21
72.699996999999996
 31
0.0
  0
LINE
  5
16C
  8
0
  6
CONTINUOUS
 10
96.900002000000001
 20
72.900002000000001
 30
0.0
 11
96.900002000000001
 21
39.5
 31
0.0
  0
LINE
  5
16D
  8
0
  6
CONTINUOUS
 10
96.900002000000001
 20
35.900002000000001
 30
0.0
 11
96.900002000000001
 21
26.899999999999999
 31
0.0
  0
LINE
  5
16E
  8
0
  6
CONTINUOUS
 10
97.0
 20
14.800000000000001
 30
0.0
 11
97.0
 21
15.0
 31
0.0
  0
LINE
  5
16F
  8
0
  6
CONTINUOUS
 10
97.099997999999999
 20
39.299999
 30
0.0
 11
97.099997999999999
 21
39.200001
 31
0.0
  0
LINE
  5
170
  8
0
  6
CONTINUOUS
 10
97.099997999999999
 20
36.099997999999999
 30
0.0
 11
97.099997999999999
 21
36.0
 31
0.0
  0
LINE
  5
171
  8
0
  6
CONTINUOUS
 10
97.099997999999999
 20
26.899999999999999
 30
0.0
 11
97.099997999999999
 21
35.799999
 31
0.0
  0
LINE
  5
172
  8
0
  6
CONTINUOUS
 10
97.099997999999999
 20
39.5
 30
0.0
 11
97.099997999999999
 21
72.900002000000001
 31
0.0
  0
LINE
  5
173
  8
0
  6
CONTINUOUS
 10
97.099997999999999
 20
26.799999
 30
0.0
 11
97.099997999999999
 21
35.799999
 31
0.0
  0
LINE
  5
174
  8
0
  6
CONTINUOUS
 10
97.099997999999999
 20
39.5
 30
0.0
 11
97.099997999999999
 21
72.800003000000004
 31
0.0
  0
LINE
  5
175
  8
0
  6
CONTINUOUS
 10
97.199996999999996
 20
36.0
 30
0.0
 11
97.199996999999996
 21
36.099997999999999
 31
0.0
  0
LINE
  5
176
  8
0
  6
CONTINUOUS
 10
97.199996999999996
 20
39.200001
 30
0.0
 11
97.199996999999996
 21
39.299999
 31
0.0
  0
LINE
  5
177
  8
0
  6
CONTINUOUS
 10
97.800003000000004
 20
14.0
 30
0.0
 11
97.800003000000004
 21
14.300000000000001
 31
0.0
  0
LINE
  5
178
  8
0
  6
CONTINUOUS
 10
97.800003000000004
 20
14.300000000000001
 30
0.0
 11
97.800003000000004
 21
14.0
 31
0.0
  0
LINE
  5
179
  8
0
  6
CONTINUOUS
 10
97.900002000000015
 20
14.800000000000001
 30
0.0
 11
97.900002000000015
 21
14.5
 31
0.0
  0
LINE
  5
17A
  8
0
  6
CONTINUOUS
 10
97.900002000000015
 20
14.800000000000001
 30
0.0
 11
97.900002000000015
 21
14.800000000000001
 31
0.0
  0
LINE
  5
17B
  8
0
  6
CONTINUOUS
 10
97.900002000000015
 20
14.5
 30
0.0
 11
97.900002000000015
 21
14.800000000000001
 31
0.0
  0
LINE
  5
17C
  8
0
  6
CONTINUOUS
 10
97.900002000000015
 20
11.9
 30
0.0
 11
97.900002000000015
 21
15.0
 31
0.0
  0
LINE
  5
17D
  8
0
  6
CONTINUOUS
 10
97.099997999999999
 20
39.5
 30
0.0
 11
97.099997999999999
 21
39.5
 31
0.0
  0
LINE
  5
17E
  8
0
  6
CONTINUOUS
 10
96.900002000000001
 20
39.5
 30
0.0
 11
96.900002000000001
 21
39.5
 31
0.0
  0
LINE
  5
17F
  8
0
  6
CONTINUOUS
 10
104.0
 20
25.100000000000001
 30
0.0
 11
104.0
 21
25.100000000000001
 31
0.0
  0
LINE
  5
180
  8
0
  6
CONTINUOUS
 10
97.099997999999999
 20
35.799999
 30
0.0
 11
97.099997999999999
 21
35.799999
 31
0.0
  0
LINE
  5
181
  8
0
  6
CONTINUOUS
 10
92.800003000000004
 20
64.599997999999999
 30
0.0
 11
92.800003000000004
 21
64.599997999999999
 31
0.0
  0
LINE
  5
182
  8
0
  6
CONTINUOUS
 10
98.900002000000015
 20
72.800003000000004
 30
0.0
 11
98.900002000000015
 21
72.800003000000004
 31
0.0
  0
LINE
  5
183
  8
0
  6
CONTINUOUS
 10
98.900002000000015
 20
26.399999999999999
 30
0.0
 11
98.900002000000015
 21
25.100000000000001
 31
0.0
  0
LINE
  5
184
  8
0
  6
CONTINUOUS
 10
99.099998000000014
 20
72.900002000000001
 30
0.0
 11
99.099998000000014
 21
25.100000000000001
 31
0.0
  0
LINE
  5
185
  8
0
  6
CONTINUOUS
 10
99.099998000000014
 20
72.900002000000001
 30
0.0
 11
99.099998000000014
 21
25.200001
 31
0.0
  0
LINE
  5
186
  8
0
  6
CONTINUOUS
 10
99.300003000000004
 20
25.200001
 30
0.0
 11
99.300003000000004
 21
72.900002000000001
 31
0.0
  0
LINE
  5
187
  8
0
  6
CONTINUOUS
 10
99.300003000000004
 20
72.900002000000001
 30
0.0
 11
99.300003000000004
 21
25.100000000000001
 31
0.0
  0
LINE
  5
188
  8
0
  6
CONTINUOUS
 10
99.900002000000001
 20
67.800003000000004
 30
0.0
 11
99.900002000000001
 21
67.300003000000004
 31
0.0
  0
LINE
  5
189
  8
0
  6
CONTINUOUS
 10
100.199997
 20
67.199996999999996
 30
0.0
 11
100.199997
 21
67.800003000000004
 31
0.0
  0
LINE
  5
18A
  8
0
  6
CONTINUOUS
 10
100.699997
 20
67.800003000000004
 30
0.0
 11
100.699997
 21
67.199996999999996
 31
0.0
  0
LINE
  5
18B
  8
0
  6
CONTINUOUS
 10
94.699996999999996
 20
26.799999
 30
0.0
 11
94.699996999999996
 21
26.799999
 31
0.0
  0
LINE
  5
18C
  8
0
  6
CONTINUOUS
 10
96.900002000000001
 20
35.900002000000001
 30
0.0
 11
96.900002000000001
 21
35.900002000000001
 31
0.0
  0
LINE
  5
18D
  8
0
  6
CONTINUOUS
 10
95.5
 20
37.599997999999999
 30
0.0
 11
95.599997999999985
 21
37.599997999999999
 31
0.0
  0
LINE
  5
18E
  8
0
  6
CONTINUOUS
 10
98.599997999999999
 20
37.599997999999999
 30
0.0
 11
98.800003000000004
 21
37.599997999999999
 31
0.0
  0
LINE
  5
18F
  8
0
  6
CONTINUOUS
 10
101.5
 20
37.599997999999999
 30
0.0
 11
101.699997
 21
37.599997999999999
 31
0.0
  0
LINE
  5
190
  8
0
  6
CONTINUOUS
 10
104.699997
 20
37.599997999999999
 30
0.0
 11
104.900002
 21
37.599997999999999
 31
0.0
  0
LINE
  5
191
  8
0
  6
CONTINUOUS
 10
104.900002
 20
37.700001
 30
0.0
 11
104.699997
 21
37.700001
 31
0.0
  0
LINE
  5
192
  8
0
  6
CONTINUOUS
 10
101.699997
 20
37.700001
 30
0.0
 11
101.5
 21
37.700001
 31
0.0
  0
LINE
  5
193
  8
0
  6
CONTINUOUS
 10
98.800003000000004
 20
37.700001
 30
0.0
 11
98.599997999999999
 21
37.700001
 31
0.0
  0
LINE
  5
194
  8
0
  6
CONTINUOUS
 10
95.599997999999985
 20
37.700001
 30
0.0
 11
95.5
 21
37.700001
 31
0.0
  0
LINE
  5
195
  8
0
  6
CONTINUOUS
 10
106.099998
 20
25.100000000000001
 30
0.0
 11
106.099998
 21
25.100000000000001
 31
0.0
  0
LINE
  5
196
  8
0
  6
CONTINUOUS
 10
101.0
 20
67.300003000000004
 30
0.0
 11
101.0
 21
67.800003000000004
 31
0.0
  0
LINE
  5
197
  8
0
  6
CONTINUOUS
 10
101.5
 20
72.900002000000001
 30
0.0
 11
101.5
 21
38.400002000000001
 31
0.0
  0
LINE
  5
198
  8
0
  6
CONTINUOUS
 10
101.5
 20
36.900002000000001
 30
0.0
 11
101.5
 21
25.100000000000001
 31
0.0
  0
LINE
  5
199
  8
0
  6
CONTINUOUS
 10
101.5
 20
25.200001
 30
0.0
 11
101.5
 21
36.900002000000001
 31
0.0
  0
LINE
  5
19A
  8
0
  6
CONTINUOUS
 10
101.5
 20
38.400002000000001
 30
0.0
 11
101.5
 21
72.900002000000001
 31
0.0
  0
LINE
  5
19B
  8
0
  6
CONTINUOUS
 10
101.699997
 20
72.900002000000001
 30
0.0
 11
101.699997
 21
38.700001
 31
0.0
  0
LINE
  5
19C
  8
0
  6
CONTINUOUS
 10
101.699997
 20
36.599997999999999
 30
0.0
 11
101.699997
 21
25.200001
 31
0.0
  0
LINE
  5
19D
  8
0
  6
CONTINUOUS
 10
101.699997
 20
72.900002000000001
 30
0.0
 11
101.699997
 21
38.799999
 31
0.0
  0
LINE
  5
19E
  8
0
  6
CONTINUOUS
 10
101.699997
 20
36.599997999999999
 30
0.0
 11
101.699997
 21
25.100000000000001
 31
0.0
  0
LINE
  5
19F
  8
0
  6
CONTINUOUS
 10
101.900002
 20
72.800003000000004
 30
0.0
 11
101.900002
 21
72.800003000000004
 31
0.0
  0
LINE
  5
1A0
  8
0
  6
CONTINUOUS
 10
103.099998
 20
39.299999
 30
0.0
 11
103.099998
 21
39.200001
 31
0.0
  0
LINE
  5
1A1
  8
0
  6
CONTINUOUS
 10
103.099998
 20
36.099997999999999
 30
0.0
 11
103.099998
 21
36.0
 31
0.0
  0
LINE
  5
1A2
  8
0
  6
CONTINUOUS
 10
108.0
 20
64.599997999999999
 30
0.0
 11
108.0
 21
64.599997999999999
 31
0.0
  0
LINE
  5
1A3
  8
0
  6
CONTINUOUS
 10
101.699997
 20
38.799999
 30
0.0
 11
101.699997
 21
38.700001
 31
0.0
  0
LINE
  5
1A4
  8
0
  6
CONTINUOUS
 10
101.5
 20
36.900002000000001
 30
0.0
 11
101.5
 21
36.900002000000001
 31
0.0
  0
LINE
  5
1A5
  8
0
  6
CONTINUOUS
 10
96.900002000000001
 20
26.799999
 30
0.0
 11
96.900002000000001
 21
26.799999
 31
0.0
  0
LINE
  5
1A6
  8
0
  6
CONTINUOUS
 10
104.0
 20
39.299999
 30
0.0
 11
104.0
 21
39.299999
 31
0.0
  0
LINE
  5
1A7
  8
0
  6
CONTINUOUS
 10
104.0
 20
36.0
 30
0.0
 11
104.0
 21
36.0
 31
0.0
  0
LINE
  5
1A8
  8
0
  6
CONTINUOUS
 10
101.5
 20
38.400002000000001
 30
0.0
 11
101.5
 21
38.400002000000001
 31
0.0
  0
LINE
  5
1A9
  8
0
  6
CONTINUOUS
 10
101.699997
 20
36.599997999999999
 30
0.0
 11
101.699997
 21
36.599997999999999
 31
0.0
  0
LINE
  5
1AA
  8
0
  6
CONTINUOUS
 10
103.300003
 20
36.0
 30
0.0
 11
103.300003
 21
36.099997999999999
 31
0.0
  0
LINE
  5
1AB
  8
0
  6
CONTINUOUS
 10
103.300003
 20
39.200001
 30
0.0
 11
103.300003
 21
39.299999
 31
0.0
  0
LINE
  5
1AC
  8
0
  6
CONTINUOUS
 10
103.800003
 20
25.100000000000001
 30
0.0
 11
103.800003
 21
35.900002000000001
 31
0.0
  0
LINE
  5
1AD
  8
0
  6
CONTINUOUS
 10
103.800003
 20
39.400002000000001
 30
0.0
 11
103.800003
 21
72.900002000000001
 31
0.0
  0
LINE
  5
1AE
  8
0
  6
CONTINUOUS
 10
103.800003
 20
25.200001
 30
0.0
 11
103.800003
 21
35.900002000000001
 31
0.0
  0
LINE
  5
1AF
  8
0
  6
CONTINUOUS
 10
103.800003
 20
39.400002000000001
 30
0.0
 11
103.800003
 21
72.900002000000001
 31
0.0
  0
LINE
  5
1B0
  8
0
  6
CONTINUOUS
 10
104.0
 20
72.900002000000001
 30
0.0
 11
104.0
 21
39.299999
 31
0.0
  0
LINE
  5
1B1
  8
0
  6
CONTINUOUS
 10
104.0
 20
36.0
 30
0.0
 11
104.0
 21
25.200001
 31
0.0
  0
LINE
  5
1B2
  8
0
  6
CONTINUOUS
 10
104.0
 20
25.100000000000001
 30
0.0
 11
104.0
 21
36.0
 31
0.0
  0
LINE
  5
1B3
  8
0
  6
CONTINUOUS
 10
104.0
 20
39.299999
 30
0.0
 11
104.0
 21
72.900002000000001
 31
0.0
  0
LINE
  5
1B4
  8
0
  6
CONTINUOUS
 10
103.800003
 20
35.900002000000001
 30
0.0
 11
103.800003
 21
35.900002000000001
 31
0.0
  0
LINE
  5
1B5
  8
0
  6
CONTINUOUS
 10
99.099998000000014
 20
25.100000000000001
 30
0.0
 11
99.099998000000014
 21
25.100000000000001
 31
0.0
  0
LINE
  5
1B6
  8
0
  6
CONTINUOUS
 10
103.800003
 20
39.400002000000001
 30
0.0
 11
103.800003
 21
39.400002000000001
 31
0.0
  0
LINE
  5
1B7
  8
0
  6
CONTINUOUS
 10
105.900002
 20
25.100000000000001
 30
0.0
 11
105.900002
 21
72.900002000000001
 31
0.0
  0
LINE
  5
1B8
  8
0
  6
CONTINUOUS
 10
105.900002
 20
25.200001
 30
0.0
 11
105.900002
 21
72.900002000000001
 31
0.0
  0
LINE
  5
1B9
  8
0
  6
CONTINUOUS
 10
106.099998
 20
72.900002000000001
 30
0.0
 11
106.099998
 21
25.200001
 31
0.0
  0
LINE
  5
1BA
  8
0
  6
CONTINUOUS
 10
106.099998
 20
25.100000000000001
 30
0.0
 11
106.099998
 21
72.900002000000001
 31
0.0
  0
LINE
  5
1BB
  8
0
  6
CONTINUOUS
 10
107.400002
 20
11.9
 30
0.0
 11
107.400002
 21
14.4
 31
0.0
  0
LINE
  5
1BC
  8
0
  6
CONTINUOUS
 10
107.400002
 20
14.0
 30
0.0
 11
107.400002
 21
14.300000000000001
 31
0.0
  0
LINE
  5
1BD
  8
0
  6
CONTINUOUS
 10
107.400002
 20
14.0
 30
0.0
 11
107.400002
 21
14.300000000000001
 31
0.0
  0
LINE
  5
1BE
  8
0
  6
CONTINUOUS
 10
107.5
 20
66.800003000000004
 30
0.0
 11
107.5
 21
64.400002000000001
 31
0.0
  0
LINE
  5
1BF
  8
0
  6
CONTINUOUS
 10
107.5
 20
66.800003000000004
 30
0.0
 11
107.5
 21
64.400002000000001
 31
0.0
  0
LINE
  5
1C0
  8
0
  6
CONTINUOUS
 10
107.599998
 20
24.700001
 30
0.0
 11
107.599998
 21
14.6
 31
0.0
  0
LINE
  5
1C1
  8
0
  6
CONTINUOUS
 10
107.699997
 20
72.5
 30
0.0
 11
107.699997
 21
67.0
 31
0.0
  0
LINE
  5
1C2
  8
0
  6
CONTINUOUS
 10
107.699997
 20
64.199996999999996
 30
0.0
 11
107.699997
 21
14.300000000000001
 31
0.0
  0
LINE
  5
1C3
  8
0
  6
CONTINUOUS
 10
107.699997
 20
14.300000000000001
 30
0.0
 11
107.699997
 21
64.199996999999996
 31
0.0
  0
LINE
  5
1C4
  8
0
  6
CONTINUOUS
 10
107.699997
 20
67.0
 30
0.0
 11
107.699997
 21
72.800003000000004
 31
0.0
  0
LINE
  5
1C5
  8
0
  6
CONTINUOUS
 10
107.800003
 20
66.699996999999996
 30
0.0
 11
107.800003
 21
64.5
 31
0.0
  0
LINE
  5
1C6
  8
0
  6
CONTINUOUS
 10
107.800003
 20
66.699996999999996
 30
0.0
 11
107.800003
 21
64.5
 31
0.0
  0
LINE
  5
1C7
  8
0
  6
CONTINUOUS
 10
107.900002
 20
66.599997999999999
 30
0.0
 11
107.900002
 21
64.5
 31
0.0
  0
LINE
  5
1C8
  8
0
  6
CONTINUOUS
 10
107.900002
 20
66.699996999999996
 30
0.0
 11
107.900002
 21
66.599997999999999
 31
0.0
  0
LINE
  5
1C9
  8
0
  6
CONTINUOUS
 10
107.900002
 20
64.5
 30
0.0
 11
107.900002
 21
64.5
 31
0.0
  0
LINE
  5
1CA
  8
0
  6
CONTINUOUS
 10
108.0
 20
64.5
 30
0.0
 11
108.0
 21
64.5
 31
0.0
  0
LINE
  5
1CB
  8
0
  6
CONTINUOUS
 10
108.0
 20
66.599997999999999
 30
0.0
 11
108.0
 21
66.599997999999999
 31
0.0
  0
LINE
  5
1CC
  8
0
  6
CONTINUOUS
 10
108.0
 20
14.0
 30
0.0
 11
108.0
 21
14.300000000000001
 31
0.0
  0
LINE
  5
1CD
  8
0
  6
CONTINUOUS
 10
101.5
 20
25.100000000000001
 30
0.0
 11
101.5
 21
25.100000000000001
 31
0.0
  0
LINE
  5
1CE
  8
0
  6
CONTINUOUS
 10
95.099998000000014
 20
25.600000000000001
 30
0.0
 11
95.099998000000014
 21
25.600000000000001
 31
0.0
  0
LINE
  5
1CF
  8
0
  6
CONTINUOUS
 10
95.300003000000004
 20
25.799999
 30
0.0
 11
95.300003000000004
 21
25.899999999999999
 31
0.0
  0
LINE
  5
1D0
  8
0
  6
CONTINUOUS
 10
95.199996999999996
 20
25.5
 30
0.0
 11
95.199996999999996
 21
25.5
 31
0.0
  0
LINE
  5
1D1
  8
0
  6
CONTINUOUS
 10
95.400001999999986
 20
25.700001
 30
0.0
 11
95.400001999999986
 21
25.700001
 31
0.0
  0
LINE
  5
1D2
  8
0
  6
CONTINUOUS
 10
95.900002000000001
 20
25.600000000000001
 30
0.0
 11
95.900002000000001
 21
25.600000000000001
 31
0.0
  0
LINE
  5
1D3
  8
0
  6
CONTINUOUS
 10
96.099997999999999
 20
25.799999
 30
0.0
 11
96.099997999999999
 21
25.899999999999999
 31
0.0
  0
LINE
  5
1D4
  8
0
  6
CONTINUOUS
 10
96.0
 20
25.5
 30
0.0
 11
96.0
 21
25.5
 31
0.0
  0
LINE
  5
1D5
  8
0
  6
CONTINUOUS
 10
96.19999700000001
 20
25.700001
 30
0.0
 11
96.19999700000001
 21
25.700001
 31
0.0
  0
LINE
  5
1D6
  8
0
  6
CONTINUOUS
 10
108.0
 20
14.0
 30
0.0
 11
108.0
 21
14.300000000000001
 31
0.0
  0
LINE
  5
1D7
  8
0
  6
CONTINUOUS
 10
108.0
 20
16.600000000000001
 30
0.0
 11
108.0
 21
73.099997999999985
 31
0.0
  0
LINE
  5
1D8
  8
0
  6
CONTINUOUS
 10
108.199997
 20
14.300000000000001
 30
0.0
 11
108.199997
 21
16.600000000000001
 31
0.0
  0
LINE
  5
1D9
  8
0
  6
CONTINUOUS
 10
108.599998
 20
13.5
 30
0.0
 11
108.599998
 21
73.599997999999999
 31
0.0
  0
LINE
  5
1DA
  8
0
  6
CONTINUOUS
 10
108.599998
 20
13.5
 30
0.0
 11
108.599998
 21
73.599997999999999
 31
0.0
  0
LINE
  5
1DB
  8
0
  6
CONTINUOUS
 10
97.800003000000004
 20
14.300000000000001
 30
0.0
 11
97.800003000000004
 21
14.300000000000001
 31
0.0
  0
LINE
  5
1DC
  8
0
  6
CONTINUOUS
 10
103.800003
 20
25.100000000000001
 30
0.0
 11
103.800003
 21
25.100000000000001
 31
0.0
  0
LINE
  5
1DD
  8
0
  6
CONTINUOUS
 10
93.099997999999985
 20
26.200001
 30
0.0
 11
93.099997999999985
 21
26.200001
 31
0.0
  0
LINE
  5
1DE
  8
0
  6
CONTINUOUS
 10
105.900002
 20
25.100000000000001
 30
0.0
 11
105.900002
 21
25.100000000000001
 31
0.0
  0
LINE
  5
1DF
  8
0
  6
CONTINUOUS
 10
93.699996999999996
 20
15.4
 30
0.0
 11
93.699996999999996
 21
15.4
 31
0.0
  0
LINE
  5
1E0
  8
0
  6
CONTINUOUS
 10
93.900002000000015
 20
15.6
 30
0.0
 11
93.900002000000015
 21
15.6
 31
0.0
  0
LINE
  5
1E1
  8
0
  6
CONTINUOUS
 10
93.800003000000004
 20
15.300000000000001
 30
0.0
 11
93.800003000000004
 21
15.300000000000001
 31
0.0
  0
LINE
  5
1E2
  8
0
  6
CONTINUOUS
 10
94.0
 20
15.5
 30
0.0
 11
94.0
 21
15.5
 31
0.0
  0
LINE
  5
1E3
  8
0
  6
CONTINUOUS
 10
92.800003000000004
 20
14.0
 30
0.0
 11
92.800003000000004
 21
14.0
 31
0.0
  0
LINE
  5
1E4
  8
0
  6
CONTINUOUS
 10
94.900002000000001
 20
72.900002000000001
 30
0.0
 11
94.900002000000001
 21
72.900002000000001
 31
0.0
  0
LINE
  5
1E5
  8
0
  6
CONTINUOUS
 10
97.099997999999999
 20
72.900002000000001
 30
0.0
 11
97.099997999999999
 21
72.900002000000001
 31
0.0
  0
LINE
  5
1E6
  8
0
  6
CONTINUOUS
 10
95.300003000000004
 20
15.4
 30
0.0
 11
95.300003000000004
 21
15.4
 31
0.0
  0
LINE
  5
1E7
  8
0
  6
CONTINUOUS
 10
95.5
 20
15.6
 30
0.0
 11
95.5
 21
15.6
 31
0.0
  0
LINE
  5
1E8
  8
0
  6
CONTINUOUS
 10
95.400001999999986
 20
15.300000000000001
 30
0.0
 11
95.400001999999986
 21
15.300000000000001
 31
0.0
  0
LINE
  5
1E9
  8
0
  6
CONTINUOUS
 10
95.599997999999985
 20
15.5
 30
0.0
 11
95.599997999999985
 21
15.5
 31
0.0
  0
LINE
  5
1EA
  8
0
  6
CONTINUOUS
 10
93.099997999999985
 20
64.199996999999996
 30
0.0
 11
93.099997999999985
 21
64.199996999999996
 31
0.0
  0
LINE
  5
1EB
  8
0
  6
CONTINUOUS
 10
92.900001999999986
 20
64.5
 30
0.0
 11
92.900001999999986
 21
64.5
 31
0.0
  0
LINE
  5
1EC
  8
0
  6
CONTINUOUS
 10
93.0
 20
64.5
 30
0.0
 11
93.0
 21
64.5
 31
0.0
  0
LINE
  5
1ED
  8
0
  6
CONTINUOUS
 10
99.300003000000004
 20
72.900002000000001
 30
0.0
 11
99.300003000000004
 21
72.900002000000001
 31
0.0
  0
LINE
  5
1EE
  8
0
  6
CONTINUOUS
 10
108.0
 20
66.599997999999999
 30
0.0
 11
108.0
 21
66.599997999999999
 31
0.0
  0
LINE
  5
1EF
  8
0
  6
CONTINUOUS
 10
107.400002
 20
14.0
 30
0.0
 11
107.400002
 21
14.0
 31
0.0
  0
LINE
  5
1F0
  8
0
  6
CONTINUOUS
 10
97.900002000000015
 20
14.5
 30
0.0
 11
97.900002000000015
 21
14.5
 31
0.0
  0
LINE
  5
1F1
  8
0
  6
CONTINUOUS
 10
101.699997
 20
72.900002000000001
 30
0.0
 11
101.699997
 21
72.900002000000001
 31
0.0
  0
LINE
  5
1F2
  8
0
  6
CONTINUOUS
 10
104.0
 20
72.900002000000001
 30
0.0
 11
104.0
 21
72.900002000000001
 31
0.0
  0
LINE
  5
1F3
  8
0
  6
CONTINUOUS
 10
108.0
 20
16.600000000000001
 30
0.0
 11
108.0
 21
16.5
 31
0.0
  0
LINE
  5
1F4
  8
0
  6
CONTINUOUS
 10
107.400002
 20
14.4
 30
0.0
 11
107.599998
 21
14.6
 31
0.0
  0
LINE
  5
1F5
  8
0
  6
CONTINUOUS
 10
92.800003000000004
 20
64.5
 30
0.0
 11
92.800003000000004
 21
64.5
 31
0.0
  0
LINE
  5
1F6
  8
0
  6
CONTINUOUS
 10
94.699996999999996
 20
72.5
 30
0.0
 11
94.699996999999996
 21
72.5
 31
0.0
  0
LINE
  5
1F7
  8
0
  6
CONTINUOUS
 10
106.099998
 20
72.900002000000001
 30
0.0
 11
106.099998
 21
72.900002000000001
 31
0.0
  0
LINE
  5
1F8
  8
0
  6
CONTINUOUS
 10
108.0
 20
16.600000000000001
 30
0.0
 11
108.0
 21
16.600000000000001
 31
0.0
  0
LINE
  5
1F9
  8
0
  6
CONTINUOUS
 10
108.0
 20
64.5
 30
0.0
 11
107.900002
 21
64.5
 31
0.0
  0
LINE
  5
1FA
  8
0
  6
CONTINUOUS
 10
92.900001999999986
 20
64.5
 30
0.0
 11
92.900001999999986
 21
64.5
 31
0.0
  0
LINE
  5
1FB
  8
0
  6
CONTINUOUS
 10
96.900002000000001
 20
72.699996999999996
 30
0.0
 11
96.900002000000001
 21
72.699996999999996
 31
0.0
  0
LINE
  5
1FC
  8
0
  6
CONTINUOUS
 10
107.699997
 20
64.199996999999996
 30
0.0
 11
107.699997
 21
64.199996999999996
 31
0.0
  0
LINE
  5
1FD
  8
0
  6
CONTINUOUS
 10
93.099997999999985
 20
64.199996999999996
 30
0.0
 11
93.199996999999996
 21
64.199996999999996
 31
0.0
  0
LINE
  5
1FE
  8
0
  6
CONTINUOUS
 10
93.099997999999985
 20
64.199996999999996
 30
0.0
 11
93.199996999999996
 21
64.199996999999996
 31
0.0
  0
LINE
  5
1FF
  8
0
  6
CONTINUOUS
 10
107.699997
 20
64.199996999999996
 30
0.0
 11
107.699997
 21
64.199996999999996
 31
0.0
  0
LINE
  5
200
  8
0
  6
CONTINUOUS
 10
92.900001999999986
 20
64.5
 30
0.0
 11
93.0
 21
64.5
 31
0.0
  0
LINE
  5
201
  8
0
  6
CONTINUOUS
 10
107.800003
 20
64.5
 30
0.0
 11
108.0
 21
64.5
 31
0.0
  0
LINE
  5
202
  8
0
  6
CONTINUOUS
 10
92.900001999999986
 20
64.5
 30
0.0
 11
93.0
 21
64.5
 31
0.0
  0
LINE
  5
203
  8
0
  6
CONTINUOUS
 10
107.800003
 20
64.5
 30
0.0
 11
108.0
 21
64.5
 31
0.0
  0
LINE
  5
204
  8
0
  6
CONTINUOUS
 10
92.800003000000004
 20
64.5
 30
0.0
 11
92.900001999999986
 21
64.5
 31
0.0
  0
LINE
  5
205
  8
0
  6
CONTINUOUS
 10
107.800003
 20
66.699996999999996
 30
0.0
 11
107.800003
 21
66.699996999999996
 31
0.0
  0
LINE
  5
206
  8
0
  6
CONTINUOUS
 10
108.0
 20
66.699996999999996
 30
0.0
 11
108.0
 21
66.599997999999999
 31
0.0
  0
LINE
  5
207
  8
0
  6
CONTINUOUS
 10
107.699997
 20
67.0
 30
0.0
 11
107.699997
 21
67.0
 31
0.0
  0
LINE
  5
208
  8
0
  6
CONTINUOUS
 10
92.900001999999986
 20
66.599997999999999
 30
0.0
 11
92.900001999999986
 21
66.599997999999999
 31
0.0
  0
LINE
  5
209
  8
0
  6
CONTINUOUS
 10
108.0
 20
66.599997999999999
 30
0.0
 11
108.0
 21
66.599997999999999
 31
0.0
  0
LINE
  5
20A
  8
0
  6
CONTINUOUS
 10
92.800003000000004
 20
66.599997999999999
 30
0.0
 11
92.900001999999986
 21
66.599997999999999
 31
0.0
  0
LINE
  5
20B
  8
0
  6
CONTINUOUS
 10
108.0
 20
66.699996999999996
 30
0.0
 11
107.800003
 21
66.699996999999996
 31
0.0
  0
LINE
  5
20C
  8
0
  6
CONTINUOUS
 10
93.0
 20
66.699996999999996
 30
0.0
 11
92.900001999999986
 21
66.699996999999996
 31
0.0
  0
LINE
  5
20D
  8
0
  6
CONTINUOUS
 10
108.0
 20
66.699996999999996
 30
0.0
 11
107.800003
 21
66.699996999999996
 31
0.0
  0
LINE
  5
20E
  8
0
  6
CONTINUOUS
 10
93.0
 20
66.699996999999996
 30
0.0
 11
92.900001999999986
 21
66.699996999999996
 31
0.0
  0
LINE
  5
20F
  8
0
  6
CONTINUOUS
 10
107.699997
 20
67.0
 30
0.0
 11
107.699997
 21
67.0
 31
0.0
  0
LINE
  5
210
  8
0
  6
CONTINUOUS
 10
93.199996999999996
 20
67.0
 30
0.0
 11
93.099997999999985
 21
67.0
 31
0.0
  0
LINE
  5
211
  8
0
  6
CONTINUOUS
 10
107.699997
 20
67.0
 30
0.0
 11
107.699997
 21
67.0
 31
0.0
  0
LINE
  5
212
  8
0
  6
CONTINUOUS
 10
93.099997999999985
 20
67.0
 30
0.0
 11
93.199996999999996
 21
67.0
 31
0.0
  0
LINE
  5
213
  8
0
  6
CONTINUOUS
 10
107.900002
 20
66.599997999999999
 30
0.0
 11
108.0
 21
66.599997999999999
 31
0.0
  0
LINE
  5
214
  8
0
  6
CONTINUOUS
 10
108.0
 20
66.699996999999996
 30
0.0
 11
108.0
 21
66.699996999999996
 31
0.0
  0
LINE
  5
215
  8
0
  6
CONTINUOUS
 10
93.199996999999996
 20
72.400002000000001
 30
0.0
 11
94.699996999999996
 21
72.5
 31
0.0
  0
LINE
  5
216
  8
0
  6
CONTINUOUS
 10
94.900002000000001
 20
72.5
 30
0.0
 11
96.900002000000001
 21
72.699996999999996
 31
0.0
  0
LINE
  5
217
  8
0
  6
CONTINUOUS
 10
97.099997999999999
 20
72.699996999999996
 30
0.0
 11
98.900002000000015
 21
72.800003000000004
 31
0.0
  0
LINE
  5
218
  8
0
  6
CONTINUOUS
 10
98.900002000000015
 20
72.900002000000001
 30
0.0
 11
99.099998000000014
 21
72.900002000000001
 31
0.0
  0
LINE
  5
219
  8
0
  6
CONTINUOUS
 10
99.300003000000004
 20
72.900002000000001
 30
0.0
 11
101.5
 21
72.900002000000001
 31
0.0
  0
LINE
  5
21A
  8
0
  6
CONTINUOUS
 10
101.699997
 20
72.900002000000001
 30
0.0
 11
102.0
 21
72.900002000000001
 31
0.0
  0
LINE
  5
21B
  8
0
  6
CONTINUOUS
 10
107.699997
 20
72.900002000000001
 30
0.0
 11
106.099998
 21
72.900002000000001
 31
0.0
  0
LINE
  5
21C
  8
0
  6
CONTINUOUS
 10
105.900002
 20
72.900002000000001
 30
0.0
 11
104.0
 21
72.900002000000001
 31
0.0
  0
LINE
  5
21D
  8
0
  6
CONTINUOUS
 10
103.800003
 20
72.900002000000001
 30
0.0
 11
101.699997
 21
72.900002000000001
 31
0.0
  0
LINE
  5
21E
  8
0
  6
CONTINUOUS
 10
101.5
 20
72.900002000000001
 30
0.0
 11
99.300003000000004
 21
72.900002000000001
 31
0.0
  0
LINE
  5
21F
  8
0
  6
CONTINUOUS
 10
99.099998000000014
 20
72.900002000000001
 30
0.0
 11
97.099997999999999
 21
72.900002000000001
 31
0.0
  0
LINE
  5
220
  8
0
  6
CONTINUOUS
 10
96.900002000000001
 20
72.900002000000001
 30
0.0
 11
94.900002000000001
 21
72.900002000000001
 31
0.0
  0
LINE
  5
221
  8
0
  6
CONTINUOUS
 10
94.699996999999996
 20
72.900002000000001
 30
0.0
 11
93.199996999999996
 21
72.900002000000001
 31
0.0
  0
LINE
  5
222
  8
0
  6
CONTINUOUS
 10
92.900001999999986
 20
73.199996999999996
 30
0.0
 11
107.900002
 21
73.199996999999996
 31
0.0
  0
LINE
  5
223
  8
0
  6
CONTINUOUS
 10
108.5
 20
73.699996999999996
 30
0.0
 11
92.400002000000001
 21
73.699996999999996
 31
0.0
  0
LINE
  5
224
  8
0
  6
CONTINUOUS
 10
108.5
 20
73.699996999999996
 30
0.0
 11
92.400002000000001
 21
73.699996999999996
 31
0.0
  0
LINE
  5
225
  8
0
  6
CONTINUOUS
 10
102.0
 20
72.800003000000004
 30
0.0
 11
103.800003
 21
72.699996999999996
 31
0.0
  0
LINE
  5
226
  8
0
  6
CONTINUOUS
 10
104.0
 20
72.699996999999996
 30
0.0
 11
105.900002
 21
72.5
 31
0.0
  0
LINE
  5
227
  8
0
  6
CONTINUOUS
 10
106.099998
 20
72.5
 30
0.0
 11
107.699997
 21
72.400002000000001
 31
0.0
  0
CIRCLE
  5
228
  8
0
  6
CONTINUOUS
 10
93.800003000000004
 20
15.5
 30
0.0
 40
0.3
  0
CIRCLE
  5
229
  8
0
  6
CONTINUOUS
 10
93.800003000000004
 20
15.5
 30
0.0
 40
0.29
  0
ARC
  5
22A
  8
0
  6
CONTINUOUS
 10
93.499999999999986
 20
15.199999999999999
 30
0.0
 40
0.2
 50
180.0
 51
270.0
  0
ARC
  5
22B
  8
0
  6
CONTINUOUS
 10
93.699996999999996
 20
15.4
 30
0.0
 40
0.067633
 50
0.0
 51
90.0
  0
ARC
  5
22C
  8
0
  6
CONTINUOUS
 10
93.900002000000015
 20
15.4
 30
0.0
 40
0.067633
 50
90.0
 51
180.0
  0
ARC
  5
22D
  8
0
  6
CONTINUOUS
 10
93.900002000000015
 20
15.6
 30
0.0
 40
0.067633
 50
180.0
 51
270.0
  0
ARC
  5
22E
  8
0
  6
CONTINUOUS
 10
93.699996999999996
 20
15.6
 30
0.0
 40
0.067633
 50
270.0
 51
0.0
  0
ARC
  5
22F
  8
0
  6
CONTINUOUS
 10
93.699996999999996
 20
15.4
 30
0.0
 40
0.05
 50
0.0
 51
90.0
  0
ARC
  5
230
  8
0
  6
CONTINUOUS
 10
93.900002000000015
 20
15.4
 30
0.0
 40
0.05
 50
90.0
 51
180.0
  0
ARC
  5
231
  8
0
  6
CONTINUOUS
 10
93.900002000000015
 20
15.6
 30
0.0
 40
0.05
 50
180.0
 51
270.0
  0
ARC
  5
232
  8
0
  6
CONTINUOUS
 10
93.699996999999996
 20
15.6
 30
0.0
 40
0.05
 50
270.0
 51
0.0
  0
CIRCLE
  5
233
  8
0
  6
CONTINUOUS
 10
95.400001999999986
 20
15.5
 30
0.0
 40
0.3
  0
CIRCLE
  5
234
  8
0
  6
CONTINUOUS
 10
95.400001999999986
 20
15.5
 30
0.0
 40
0.29
  0
ARC
  5
235
  8
0
  6
CONTINUOUS
 10
96.599998000000014
 20
15.0
 30
0.0
 40
0.25
 50
270.0
 51
343.70001200000002
  0
CIRCLE
  5
236
  8
0
  6
CONTINUOUS
 10
95.900002000000001
 20
17.600000000000001
 30
0.0
 40
0.23
  0
ARC
  5
237
  8
0
  6
CONTINUOUS
 10
95.300003000000004
 20
15.4
 30
0.0
 40
0.067633
 50
0.0
 51
90.0
  0
ARC
  5
238
  8
0
  6
CONTINUOUS
 10
95.5
 20
15.4
 30
0.0
 40
0.067633
 50
90.0
 51
180.0
  0
ARC
  5
239
  8
0
  6
CONTINUOUS
 10
95.5
 20
15.6
 30
0.0
 40
0.067633
 50
180.0
 51
270.0
  0
ARC
  5
23A
  8
0
  6
CONTINUOUS
 10
95.300003000000004
 20
15.6
 30
0.0
 40
0.067633
 50
270.0
 51
0.0
  0
ARC
  5
23B
  8
0
  6
CONTINUOUS
 10
95.300003000000004
 20
15.4
 30
0.0
 40
0.05
 50
0.0
 51
90.0
  0
ARC
  5
23C
  8
0
  6
CONTINUOUS
 10
95.5
 20
15.4
 30
0.0
 40
0.05
 50
90.0
 51
180.0
  0
ARC
  5
23D
  8
0
  6
CONTINUOUS
 10
95.5
 20
15.6
 30
0.0
 40
0.05
 50
180.0
 51
270.0
  0
ARC
  5
23E
  8
0
  6
CONTINUOUS
 10
95.300003000000004
 20
15.6
 30
0.0
 40
0.05
 50
270.0
 51
0.0
  0
CIRCLE
  5
23F
  8
0
  6
CONTINUOUS
 10
95.199996999999996
 20
25.700001
 30
0.0
 40
0.3
  0
CIRCLE
  5
240
  8
0
  6
CONTINUOUS
 10
96.0
 20
25.700001
 30
0.0
 40
0.3
  0
CIRCLE
  5
241
  8
0
  6
CONTINUOUS
 10
95.199996999999996
 20
25.700001
 30
0.0
 40
0.29
  0
CIRCLE
  5
242
  8
0
  6
CONTINUOUS
 10
96.0
 20
25.700001
 30
0.0
 40
0.29
  0
ARC
  5
243
  8
0
  6
CONTINUOUS
 10
95.099998000000014
 20
25.600000000000001
 30
0.0
 40
0.067633
 50
0.0
 51
90.0
  0
ARC
  5
244
  8
0
  6
CONTINUOUS
 10
95.300003000000004
 20
25.600000000000001
 30
0.0
 40
0.067633
 50
90.0
 51
180.0
  0
ARC
  5
245
  8
0
  6
CONTINUOUS
 10
95.300003000000004
 20
25.799999
 30
0.0
 40
0.067633
 50
180.0
 51
270.0
  0
ARC
  5
246
  8
0
  6
CONTINUOUS
 10
95.099998000000014
 20
25.799999
 30
0.0
 40
0.067633
 50
270.0
 51
0.0
  0
ARC
  5
247
  8
0
  6
CONTINUOUS
 10
95.900002000000001
 20
25.600000000000001
 30
0.0
 40
0.067633
 50
0.0
 51
90.0
  0
ARC
  5
248
  8
0
  6
CONTINUOUS
 10
96.099997999999999
 20
25.600000000000001
 30
0.0
 40
0.067633
 50
90.0
 51
180.0
  0
ARC
  5
249
  8
0
  6
CONTINUOUS
 10
96.099997999999999
 20
25.799999
 30
0.0
 40
0.067633
 50
180.0
 51
270.0
  0
ARC
  5
24A
  8
0
  6
CONTINUOUS
 10
95.900002000000001
 20
25.799999
 30
0.0
 40
0.067633
 50
270.0
 51
0.0
  0
ARC
  5
24B
  8
0
  6
CONTINUOUS
 10
95.099998000000014
 20
25.600000000000001
 30
0.0
 40
0.05
 50
0.0
 51
90.0
  0
ARC
  5
24C
  8
0
  6
CONTINUOUS
 10
95.300003000000004
 20
25.600000000000001
 30
0.0
 40
0.05
 50
90.0
 51
180.0
  0
ARC
  5
24D
  8
0
  6
CONTINUOUS
 10
95.300003000000004
 20
25.799999
 30
0.0
 40
0.05
 50
180.0
 51
270.0
  0
ARC
  5
24E
  8
0
  6
CONTINUOUS
 10
95.099998000000014
 20
25.799999
 30
0.0
 40
0.05
 50
270.0
 51
0.0
  0
ARC
  5
24F
  8
0
  6
CONTINUOUS
 10
95.900002000000001
 20
25.600000000000001
 30
0.0
 40
0.05
 50
0.0
 51
90.0
  0
ARC
  5
250
  8
0
  6
CONTINUOUS
 10
96.099997999999999
 20
25.600000000000001
 30
0.0
 40
0.05
 50
90.0
 51
180.0
  0
ARC
  5
251
  8
0
  6
CONTINUOUS
 10
96.099997999999999
 20
25.799999
 30
0.0
 40
0.05
 50
180.0
 51
270.0
  0
ARC
  5
252
  8
0
  6
CONTINUOUS
 10
95.900002000000001
 20
25.799999
 30
0.0
 40
0.05
 50
270.0
 51
0.0
  0
ARC
  5
253
  8
0
  6
CONTINUOUS
 10
99.800003000000004
 20
17.799999
 30
0.0
 40
0.35
 50
90.0
 51
270.0
  0
ARC
  5
254
  8
0
  6
CONTINUOUS
 10
99.800003000000004
 20
17.799999
 30
0.0
 40
0.25
 50
89.300003000000004
 51
269.29998799999998
  0
ARC
  5
255
  8
0
  6
CONTINUOUS
 10
99.099998000000014
 20
25.100000000000001
 30
0.0
 40
0.2
 50
180.0
 51
270.0
  0
ARC
  5
256
  8
0
  6
CONTINUOUS
 10
97.099997999999999
 20
37.700001
 30
0.0
 40
1.825
 50
97.900002000000015
 51
262.10000600000001
  0
ARC
  5
257
  8
0
  6
CONTINUOUS
 10
97.099997999999999
 20
37.700001
 30
0.0
 40
1.825
 50
268.39999399999999
 51
91.599997999999985
  0
ARC
  5
258
  8
0
  6
CONTINUOUS
 10
97.099997999999999
 20
37.700001
 30
0.0
 40
1.8180160000000001
 50
97.800003000000004
 51
262.20001200000002
  0
ARC
  5
259
  8
0
  6
CONTINUOUS
 10
97.099997999999999
 20
37.700001
 30
0.0
 40
1.8180160000000001
 50
268.29998799999998
 51
91.699996999999996
  0
CIRCLE
  5
25A
  8
0
  6
CONTINUOUS
 10
97.099997999999999
 20
37.700001
 30
0.0
 40
1.675475
  0
CIRCLE
  5
25B
  8
0
  6
CONTINUOUS
 10
97.099997999999999
 20
37.700001
 30
0.0
 40
1.671983999999999
  0
ARC
  5
25C
  8
0
  6
CONTINUOUS
 10
97.099997999999999
 20
37.700001
 30
0.0
 40
1.514999999999999
 50
92.800003000000004
 51
177.199997
  0
ARC
  5
25D
  8
0
  6
CONTINUOUS
 10
97.099997999999999
 20
37.700001
 30
0.0
 40
1.514999999999999
 50
2.7999999999999989
 51
87.199996999999996
  0
ARC
  5
25E
  8
0
  6
CONTINUOUS
 10
97.099997999999999
 20
37.700001
 30
0.0
 40
1.514999999999999
 50
272.79998799999998
 51
357.20001200000002
  0
ARC
  5
25F
  8
0
  6
CONTINUOUS
 10
97.099997999999999
 20
37.700001
 30
0.0
 40
1.514999999999999
 50
182.800003
 51
267.20001200000002
  0
ARC
  5
260
  8
0
  6
CONTINUOUS
 10
98.69999700000001
 20
26.399999999999999
 30
0.0
 40
0.2
 50
0.0
 51
90.0
  0
ARC
  5
261
  8
0
  6
CONTINUOUS
 10
100.400002
 20
67.800003000000004
 30
0.0
 40
50.25
 50
269.29998799999998
 51
270.70001200000002
  0
ARC
  5
262
  8
0
  6
CONTINUOUS
 10
100.400002
 20
67.800003000000004
 30
0.0
 40
49.75
 50
269.29998799999998
 51
270.70001200000002
  0
ARC
  5
263
  8
0
  6
CONTINUOUS
 10
100.400002
 20
66.599997999999999
 30
0.0
 40
0.8599999999999999
 50
132.39999399999999
 51
47.599997999999999
  0
ARC
  5
264
  8
0
  6
CONTINUOUS
 10
100.400002
 20
67.800003000000004
 30
0.0
 40
0.58
 50
0.0
 51
180.0
  0
CIRCLE
  5
265
  8
0
  6
CONTINUOUS
 10
95.900002000000001
 20
67.599997999999999
 30
0.0
 40
0.58
  0
CIRCLE
  5
266
  8
0
  6
CONTINUOUS
 10
95.900002000000001
 20
42.599997999999999
 30
0.0
 40
0.58
  0
ARC
  5
267
  8
0
  6
CONTINUOUS
 10
100.400002
 20
66.599997999999999
 30
0.0
 40
0.554763
 50
129.0
 51
50.999999999999993
  0
CIRCLE
  5
268
  8
0
  6
CONTINUOUS
 10
95.900002000000001
 20
42.599997999999999
 30
0.0
 40
0.274763
  0
CIRCLE
  5
269
  8
0
  6
CONTINUOUS
 10
95.900002000000001
 20
67.599997999999999
 30
0.0
 40
0.274763
  0
ARC
  5
26A
  8
0
  6
CONTINUOUS
 10
100.400002
 20
67.800003000000004
 30
0.0
 40
0.274763
 50
0.0
 51
180.0
  0
ARC
  5
26B
  8
0
  6
CONTINUOUS
 10
103.199997
 20
37.700001
 30
0.0
 40
1.825
 50
71.099997999999999
 51
143.10000600000001
  0
ARC
  5
26C
  8
0
  6
CONTINUOUS
 10
103.199997
 20
37.700001
 30
0.0
 40
1.825
 50
216.89999399999999
 51
288.89999399999999
  0
ARC
  5
26D
  8
0
  6
CONTINUOUS
 10
103.199997
 20
37.700001
 30
0.0
 40
1.825
 50
155.39999399999999
 51
204.60000600000001
  0
ARC
  5
26E
  8
0
  6
CONTINUOUS
 10
103.199997
 20
37.700001
 30
0.0
 40
1.825
 50
295.70001200000002
 51
64.300003000000004
  0
ARC
  5
26F
  8
0
  6
CONTINUOUS
 10
103.199997
 20
37.700001
 30
0.0
 40
1.8180160000000001
 50
70.900002000000001
 51
143.60000600000001
  0
ARC
  5
270
  8
0
  6
CONTINUOUS
 10
103.199997
 20
37.700001
 30
0.0
 40
1.8180160000000001
 50
155.699997
 51
204.300003
  0
ARC
  5
271
  8
0
  6
CONTINUOUS
 10
103.199997
 20
37.700001
 30
0.0
 40
1.8180160000000001
 50
295.60000600000001
 51
64.400002000000001
  0
ARC
  5
272
  8
0
  6
CONTINUOUS
 10
103.199997
 20
37.700001
 30
0.0
 40
1.8180160000000001
 50
216.39999399999999
 51
289.10000600000001
  0
CIRCLE
  5
273
  8
0
  6
CONTINUOUS
 10
103.199997
 20
37.700001
 30
0.0
 40
1.675475
  0
CIRCLE
  5
274
  8
0
  6
CONTINUOUS
 10
103.199997
 20
37.700001
 30
0.0
 40
1.671983999999999
  0
ARC
  5
275
  8
0
  6
CONTINUOUS
 10
103.199997
 20
37.700001
 30
0.0
 40
1.514999999999999
 50
92.800003000000004
 51
177.199997
  0
ARC
  5
276
  8
0
  6
CONTINUOUS
 10
103.199997
 20
37.700001
 30
0.0
 40
1.514999999999999
 50
2.7999999999999989
 51
87.199996999999996
  0
ARC
  5
277
  8
0
  6
CONTINUOUS
 10
103.199997
 20
37.700001
 30
0.0
 40
1.514999999999999
 50
272.79998799999998
 51
357.20001200000002
  0
ARC
  5
278
  8
0
  6
CONTINUOUS
 10
103.199997
 20
37.700001
 30
0.0
 40
1.514999999999999
 50
182.800003
 51
267.20001200000002
  0
ARC
  5
279
  8
0
  6
CONTINUOUS
 10
101.099998
 20
17.799999
 30
0.0
 40
0.35
 50
270.0
 51
90.0
  0
ARC
  5
27A
  8
0
  6
CONTINUOUS
 10
101.099998
 20
17.799999
 30
0.0
 40
0.25
 50
270.70001200000002
 51
90.699996999999996
  0
CIRCLE
  5
27B
  8
0
  6
CONTINUOUS
 10
104.900002
 20
17.600000000000001
 30
0.0
 40
0.23
  0
ARC
  5
27C
  8
0
  6
CONTINUOUS
 10
107.400002
 20
24.700001
 30
0.0
 40
0.2
 50
0.0
 51
90.0
  0
CIRCLE
  5
27D
  8
0
  6
CONTINUOUS
 10
104.900002
 20
67.599997999999999
 30
0.0
 40
0.58
  0
CIRCLE
  5
27E
  8
0
  6
CONTINUOUS
 10
104.900002
 20
42.599997999999999
 30
0.0
 40
0.58
  0
CIRCLE
  5
27F
  8
0
  6
CONTINUOUS
 10
104.900002
 20
42.599997999999999
 30
0.0
 40
0.274763
  0
CIRCLE
  5
280
  8
0
  6
CONTINUOUS
 10
104.900002
 20
67.599997999999999
 30
0.0
 40
0.274763
  0
LINE
  5
281
  8
0
  6
CONTINUOUS
 10
101.099998
 20
8.0999999999999996
 30
0.0
 11
101.099998
 21
11.9
 31
0.0
  0
LINE
  5
282
  8
0
  6
CONTINUOUS
 10
99.800003000000004
 20
8.0999999999999996
 30
0.0
 11
99.800003000000004
 21
11.9
 31
0.0
  0
LINE
  5
283
  8
0
  6
CONTINUOUS
 10
99.0
 20
11.9
 30
0.0
 11
99.0
 21
-0.1
 31
0.0
  0
LINE
  5
284
  8
0
  6
CONTINUOUS
 10
98.300003000000004
 20
11.9
 30
0.0
 11
98.300003000000004
 21
-0.1
 31
0.0
  0
LINE
  5
285
  8
0
  6
CONTINUOUS
 10
101.0
 20
2.6000000000000001
 30
0.0
 11
99.099998000000014
 21
2.6000000000000001
 31
0.0
  0
LINE
  5
286
  8
0
  6
CONTINUOUS
 10
104.099998
 20
2.6000000000000001
 30
0.0
 11
102.5
 21
2.6000000000000001
 31
0.0
  0
LINE
  5
287
  8
0
  6
CONTINUOUS
 10
104.099998
 20
3.2999999999999989
 30
0.0
 11
99.099998000000014
 21
3.2999999999999989
 31
0.0
  0
LINE
  5
288
  8
0
  6
CONTINUOUS
 10
104.300003
 20
11.9
 30
0.0
 11
104.300003
 21
-0.1
 31
0.0
  0
LINE
  5
289
  8
0
  6
CONTINUOUS
 10
105.0
 20
-0.1
 30
0.0
 11
105.0
 21
11.9
 31
0.0
  0
ARC
  5
28A
  8
0
  6
CONTINUOUS
 10
98.599997999999999
 20
-0.1
 30
0.0
 40
0.35
 50
180.0
 51
0.0
  0
ARC
  5
28B
  8
0
  6
CONTINUOUS
 10
99.099998000000014
 20
2.399999999999999
 30
0.0
 40
0.15
 50
90.0
 51
179.60000600000001
  0
ARC
  5
28C
  8
0
  6
CONTINUOUS
 10
99.099998000000014
 20
2.399999999999999
 30
0.0
 40
0.85
 50
179.800003
 51
180.0
  0
ARC
  5
28D
  8
0
  6
CONTINUOUS
 10
99.099998000000014
 20
2.399999999999999
 30
0.0
 40
0.85
 50
90.0
 51
100.199997
  0
ARC
  5
28E
  8
0
  6
CONTINUOUS
 10
104.099998
 20
2.399999999999999
 30
0.0
 40
0.15
 50
0.0
 51
90.0
  0
ARC
  5
28F
  8
0
  6
CONTINUOUS
 10
104.099998
 20
2.399999999999999
 30
0.0
 40
0.85
 50
79.800003000000004
 51
90.0
  0
ARC
  5
290
  8
0
  6
CONTINUOUS
 10
104.599998
 20
-0.1
 30
0.0
 40
0.35
 50
180.0
 51
0.0
  0
LINE
  5
291
  8
0
  6
CONTINUOUS
 10
101.099998
 20
3.2999999999999989
 30
0.0
 11
101.099998
 21
8.0999999999999996
 31
0.0
  0
LINE
  5
292
  8
0
  6
CONTINUOUS
 10
101.099998
 20
-36.0
 30
0.0
 11
101.099998
 21
1.3
 31
0.0
  0
ARC
  5
293
  8
0
  6
CONTINUOUS
 10
104.300003
 20
-39.099997999999999
 30
0.0
 40
2.1561180000000002
 50
242.10000600000001
 51
247.300003
  0
ARC
  5
294
  8
0
  6
CONTINUOUS
 10
101.800003
 20
-4.0
 30
0.0
 40
5.3750010000000001
 50
131.10000600000001
 51
180.0
  0
ARC
  5
295
  8
0
  6
CONTINUOUS
 10
101.800003
 20
-4.0
 30
0.0
 40
5.375
 50
90.699996999999996
 51
121.800003
  0
LINE
  5
296
  8
0
  6
CONTINUOUS
 10
96.400002000000015
 20
-36.0
 30
0.0
 11
96.400002000000015
 21
-4.0
 31
0.0
  0
LINE
  5
297
  8
0
  6
CONTINUOUS
 10
107.099998
 20
-4.0
 30
0.0
 11
107.099998
 21
-36.0
 31
0.0
  0
ARC
  5
298
  8
0
  6
CONTINUOUS
 10
101.699997
 20
-4.0
 30
0.0
 40
5.375
 50
129.300003
 51
180.0
  0
ARC
  5
299
  8
0
  6
CONTINUOUS
 10
101.699997
 20
-4.0
 30
0.0
 40
5.375
 50
61.099997999999992
 51
120.199997
  0
LINE
  5
29A
  8
0
  6
CONTINUOUS
 10
105.0
 20
0.2
 30
0.0
 11
105.0
 21
0.2
 31
0.0
  0
ARC
  5
29B
  8
0
  6
CONTINUOUS
 10
101.699997
 20
-4.0
 30
0.0
 40
5.375
 50
0.0
 51
31.799999
  0
LINE
  5
29C
  8
0
  6
CONTINUOUS
 10
96.300003000000004
 20
-36.0
 30
0.0
 11
96.300003000000004
 21
-4.0
 31
0.0
  0
LINE
  5
29D
  8
0
  6
CONTINUOUS
 10
99.800003000000004
 20
3.2999999999999989
 30
0.0
 11
99.800003000000004
 21
8.0999999999999996
 31
0.0
  0
LINE
  5
29E
  8
0
  6
CONTINUOUS
 10
99.800003000000004
 20
2.2999999999999989
 30
0.0
 11
99.800003000000004
 21
2.6000000000000001
 31
0.0
  0
LINE
  5
29F
  8
0
  6
CONTINUOUS
 10
99.800003000000004
 20
-36.0
 30
0.0
 11
99.800003000000004
 21
1.0
 31
0.0
  0
LINE
  5
2A0
  8
0
  6
CONTINUOUS
 10
108.400002
 20
-4.0
 30
0.0
 11
108.400002
 21
-36.0
 31
0.0
  0
ARC
  5
2A1
  8
0
  6
CONTINUOUS
 10
101.800003
 20
-4.0
 30
0.0
 40
6.6250020000000003
 50
68.199996999999996
 51
90.599997999999985
  0
LINE
  5
2A2
  8
0
  6
CONTINUOUS
 10
105.0
 20
1.8
 30
0.0
 11
105.0
 21
1.8
 31
0.0
  0
ARC
  5
2A3
  8
0
  6
CONTINUOUS
 10
101.800003
 20
-4.0
 30
0.0
 40
6.625
 50
0.0
 51
47.900002000000001
  0
LINE
  5
2A4
  8
0
  6
CONTINUOUS
 10
108.300003
 20
-4.0
 30
0.0
 11
108.300003
 21
-36.0
 31
0.0
  0
ARC
  5
2A5
  8
0
  6
CONTINUOUS
 10
101.699997
 20
-4.0
 30
0.0
 40
6.625
 50
120.900002
 51
180.0
  0
ARC
  5
2A6
  8
0
  6
CONTINUOUS
 10
101.699997
 20
-4.0
 30
0.0
 40
6.625
 50
66.900002000000001
 51
114.099998
  0
LINE
  5
2A7
  8
0
  6
CONTINUOUS
 10
105.0
 20
1.7
 30
0.0
 11
105.0
 21
1.7
 31
0.0
  0
ARC
  5
2A8
  8
0
  6
CONTINUOUS
 10
101.699997
 20
-4.0
 30
0.0
 40
6.6250009999999993
 50
0.0
 51
46.400002000000001
  0
LINE
  5
2A9
  8
0
  6
CONTINUOUS
 10
95.099998000000014
 20
-36.0
 30
0.0
 11
95.099998000000014
 21
-4.0
 31
0.0
  0
LINE
  5
2AA
  8
0
  6
CONTINUOUS
 10
105.0
 20
11.9
 30
0.0
 11
105.0
 21
-36.0
 31
0.0
  0
LINE
  5
2AB
  8
0
  6
CONTINUOUS
 10
106.300003
 20
11.9
 30
0.0
 11
106.300003
 21
-36.0
 31
0.0
  0
LINE
  5
2AC
  8
0
  6
CONTINUOUS
 10
-101.400002
 20
12.4
 30
0.0
 11
-101.400002
 21
12.4
 31
0.0
  0
LINE
  5
2AD
  8
0
  6
CONTINUOUS
 10
-101.5
 20
12.4
 30
0.0
 11
-101.400002
 21
12.4
 31
0.0
  0
LINE
  5
2AE
  8
0
  6
CONTINUOUS
 10
-101.5
 20
12.4
 30
0.0
 11
-101.599998
 21
12.4
 31
0.0
  0
LINE
  5
2AF
  8
0
  6
CONTINUOUS
 10
-101.599998
 20
12.4
 30
0.0
 11
-101.5
 21
12.5
 31
0.0
  0
LINE
  5
2B0
  8
0
  6
CONTINUOUS
 10
-101.699997
 20
12.4
 30
0.0
 11
-101.800003
 21
12.4
 31
0.0
  0
LINE
  5
2B1
  8
0
  6
CONTINUOUS
 10
-109.300003
 20
11.9
 30
0.0
 11
-103.0
 21
11.9
 31
0.0
  0
LINE
  5
2B2
  8
0
  6
CONTINUOUS
 10
-101.800003
 20
11.9
 30
0.0
 11
-99.900002000000001
 21
11.9
 31
0.0
  0
LINE
  5
2B3
  8
0
  6
CONTINUOUS
 10
-109.300003
 20
12.1
 30
0.0
 11
-103.0
 21
12.1
 31
0.0
  0
LINE
  5
2B4
  8
0
  6
CONTINUOUS
 10
-101.800003
 20
12.1
 30
0.0
 11
-99.900002000000001
 21
12.1
 31
0.0
  0
LINE
  5
2B5
  8
0
  6
CONTINUOUS
 10
-106.800003
 20
12.4
 30
0.0
 11
-108.400002
 21
12.4
 31
0.0
  0
LINE
  5
2B6
  8
0
  6
CONTINUOUS
 10
-103.0
 20
12.4
 30
0.0
 11
-103.0
 21
12.4
 31
0.0
  0
LINE
  5
2B7
  8
0
  6
CONTINUOUS
 10
-103.300003
 20
12.4
 30
0.0
 11
-103.300003
 21
12.4
 31
0.0
  0
LINE
  5
2B8
  8
0
  6
CONTINUOUS
 10
-103.199997
 20
12.4
 30
0.0
 11
-103.300003
 21
12.4
 31
0.0
  0
LINE
  5
2B9
  8
0
  6
CONTINUOUS
 10
-103.400002
 20
12.4
 30
0.0
 11
-103.300003
 21
12.4
 31
0.0
  0
LINE
  5
2BA
  8
0
  6
CONTINUOUS
 10
-101.300003
 20
12.5
 30
0.0
 11
-101.300003
 21
12.5
 31
0.0
  0
LINE
  5
2BB
  8
0
  6
CONTINUOUS
 10
-103.300003
 20
12.5
 30
0.0
 11
-103.300003
 21
12.5
 31
0.0
  0
LINE
  5
2BC
  8
0
  6
CONTINUOUS
 10
-101.5
 20
12.5
 30
0.0
 11
-101.5
 21
12.5
 31
0.0
  0
LINE
  5
2BD
  8
0
  6
CONTINUOUS
 10
-101.5
 20
12.4
 30
0.0
 11
-101.5
 21
12.4
 31
0.0
  0
LINE
  5
2BE
  8
0
  6
CONTINUOUS
 10
-103.300003
 20
12.5
 30
0.0
 11
-103.099998
 21
12.5
 31
0.0
  0
LINE
  5
2BF
  8
0
  6
CONTINUOUS
 10
-98.0
 20
13.4
 30
0.0
 11
-98.0
 21
13.4
 31
0.0
  0
LINE
  5
2C0
  8
0
  6
CONTINUOUS
 10
-102.400002
 20
12.699999999999999
 30
0.0
 11
-102.400002
 21
12.699999999999999
 31
0.0
  0
LINE
  5
2C1
  8
0
  6
CONTINUOUS
 10
-110.5
 20
13.4
 30
0.0
 11
-108.400002
 21
13.4
 31
0.0
  0
LINE
  5
2C2
  8
0
  6
CONTINUOUS
 10
-106.800003
 20
13.4
 30
0.0
 11
-103.699997
 21
13.4
 31
0.0
  0
LINE
  5
2C3
  8
0
  6
CONTINUOUS
 10
-101.099998
 20
13.4
 30
0.0
 11
-98.099997999999985
 21
13.4
 31
0.0
  0
LINE
  5
2C4
  8
0
  6
CONTINUOUS
 10
-95.599997999999985
 20
13.4
 30
0.0
 11
-94.300003000000004
 21
13.4
 31
0.0
  0
LINE
  5
2C5
  8
0
  6
CONTINUOUS
 10
-110.5
 20
13.4
 30
0.0
 11
-109.800003
 21
13.4
 31
0.0
  0
LINE
  5
2C6
  8
0
  6
CONTINUOUS
 10
-105.400002
 20
13.4
 30
0.0
 11
-103.699997
 21
13.4
 31
0.0
  0
LINE
  5
2C7
  8
0
  6
CONTINUOUS
 10
-101.099998
 20
13.4
 30
0.0
 11
-99.0
 21
13.4
 31
0.0
  0
LINE
  5
2C8
  8
0
  6
CONTINUOUS
 10
-98.800003000000004
 20
13.4
 30
0.0
 11
-94.900002000000001
 21
13.4
 31
0.0
  0
LINE
  5
2C9
  8
0
  6
CONTINUOUS
 10
-94.699996999999996
 20
13.4
 30
0.0
 11
-94.300003000000004
 21
13.4
 31
0.0
  0
LINE
  5
2CA
  8
0
  6
CONTINUOUS
 10
-99.0
 20
13.5
 30
0.0
 11
-98.800003000000004
 21
13.5
 31
0.0
  0
LINE
  5
2CB
  8
0
  6
CONTINUOUS
 10
-94.900002000000001
 20
13.5
 30
0.0
 11
-94.800003000000004
 21
13.5
 31
0.0
  0
LINE
  5
2CC
  8
0
  6
CONTINUOUS
 10
-94.800003000000004
 20
13.5
 30
0.0
 11
-94.900002000000001
 21
13.5
 31
0.0
  0
LINE
  5
2CD
  8
0
  6
CONTINUOUS
 10
-98.800003000000004
 20
13.5
 30
0.0
 11
-99.0
 21
13.5
 31
0.0
  0
LINE
  5
2CE
  8
0
  6
CONTINUOUS
 10
-98.300003000000004
 20
13.9
 30
0.0
 11
-98.099997999999985
 21
13.9
 31
0.0
  0
LINE
  5
2CF
  8
0
  6
CONTINUOUS
 10
-95.599997999999985
 20
13.9
 30
0.0
 11
-95.400001999999986
 21
13.9
 31
0.0
  0
LINE
  5
2D0
  8
0
  6
CONTINUOUS
 10
-95.5
 20
13.9
 30
0.0
 11
-95.599997999999985
 21
13.9
 31
0.0
  0
LINE
  5
2D1
  8
0
  6
CONTINUOUS
 10
-98.099997999999985
 20
13.9
 30
0.0
 11
-98.199996999999996
 21
13.9
 31
0.0
  0
LINE
  5
2D2
  8
0
  6
CONTINUOUS
 10
-94.300003000000004
 20
14.6
 30
0.0
 11
-94.199996999999996
 21
14.6
 31
0.0
  0
LINE
  5
2D3
  8
0
  6
CONTINUOUS
 10
-95.699996999999996
 20
13.4
 30
0.0
 11
-95.699996999999996
 21
13.4
 31
0.0
  0
LINE
  5
2D4
  8
0
  6
CONTINUOUS
 10
-101.599998
 20
12.5
 30
0.0
 11
-101.5
 21
12.5
 31
0.0
  0
LINE
  5
2D5
  8
0
  6
CONTINUOUS
 10
-103.300003
 20
12.4
 30
0.0
 11
-103.300003
 21
12.4
 31
0.0
  0
LINE
  5
2D6
  8
0
  6
CONTINUOUS
 10
-103.300003
 20
12.5
 30
0.0
 11
-103.300003
 21
12.5
 31
0.0
  0
LINE
  5
2D7
  8
0
  6
CONTINUOUS
 10
-103.5
 20
12.5
 30
0.0
 11
-103.400002
 21
12.5
 31
0.0
  0
LINE
  5
2D8
  8
0
  6
CONTINUOUS
 10
-103.5
 20
12.5
 30
0.0
 11
-103.5
 21
12.5
 31
0.0
  0
LINE
  5
2D9
  8
0
  6
CONTINUOUS
 10
-103.300003
 20
12.4
 30
0.0
 11
-103.300003
 21
12.4
 31
0.0
  0
LINE
  5
2DA
  8
0
  6
CONTINUOUS
 10
-106.800003
 20
15.800000000000001
 30
0.0
 11
-103.800003
 21
15.800000000000001
 31
0.0
  0
LINE
  5
2DB
  8
0
  6
CONTINUOUS
 10
-101.0
 20
15.800000000000001
 30
0.0
 11
-98.0
 21
15.800000000000001
 31
0.0
  0
LINE
  5
2DC
  8
0
  6
CONTINUOUS
 10
-106.800003
 20
15.800000000000001
 30
0.0
 11
-103.800003
 21
15.800000000000001
 31
0.0
  0
LINE
  5
2DD
  8
0
  6
CONTINUOUS
 10
-101.0
 20
15.800000000000001
 30
0.0
 11
-98.0
 21
15.800000000000001
 31
0.0
  0
LINE
  5
2DE
  8
0
  6
CONTINUOUS
 10
-105.5
 20
15.9
 30
0.0
 11
-103.800003
 21
15.9
 31
0.0
  0
LINE
  5
2DF
  8
0
  6
CONTINUOUS
 10
-101.0
 20
15.9
 30
0.0
 11
-99.300003000000004
 21
15.9
 31
0.0
  0
LINE
  5
2E0
  8
0
  6
CONTINUOUS
 10
-106.900002
 20
16.0
 30
0.0
 11
-105.599998
 21
16.0
 31
0.0
  0
LINE
  5
2E1
  8
0
  6
CONTINUOUS
 10
-99.199996999999996
 20
16.0
 30
0.0
 11
-97.900002000000015
 21
16.0
 31
0.0
  0
LINE
  5
2E2
  8
0
  6
CONTINUOUS
 10
-106.800003
 20
16.100000000000001
 30
0.0
 11
-105.699997
 21
16.100000000000001
 31
0.0
  0
LINE
  5
2E3
  8
0
  6
CONTINUOUS
 10
-99.099998000000014
 20
16.100000000000001
 30
0.0
 11
-98.0
 21
16.100000000000001
 31
0.0
  0
LINE
  5
2E4
  8
0
  6
CONTINUOUS
 10
-100.400002
 20
16.5
 30
0.0
 11
-101.0
 21
16.5
 31
0.0
  0
LINE
  5
2E5
  8
0
  6
CONTINUOUS
 10
-103.800003
 20
16.5
 30
0.0
 11
-104.400002
 21
16.5
 31
0.0
  0
LINE
  5
2E6
  8
0
  6
CONTINUOUS
 10
-100.400002
 20
17.0
 30
0.0
 11
-101.0
 21
17.0
 31
0.0
  0
LINE
  5
2E7
  8
0
  6
CONTINUOUS
 10
-103.800003
 20
17.0
 30
0.0
 11
-104.400002
 21
17.0
 31
0.0
  0
LINE
  5
2E8
  8
0
  6
CONTINUOUS
 10
-101.5
 20
12.5
 30
0.0
 11
-101.5
 21
12.5
 31
0.0
  0
LINE
  5
2E9
  8
0
  6
CONTINUOUS
 10
-104.400002
 20
20.399999999999999
 30
0.0
 11
-103.800003
 21
20.399999999999999
 31
0.0
  0
LINE
  5
2EA
  8
0
  6
CONTINUOUS
 10
-101.0
 20
20.399999999999999
 30
0.0
 11
-100.400002
 21
20.399999999999999
 31
0.0
  0
LINE
  5
2EB
  8
0
  6
CONTINUOUS
 10
-104.400002
 20
20.899999999999999
 30
0.0
 11
-103.800003
 21
20.899999999999999
 31
0.0
  0
LINE
  5
2EC
  8
0
  6
CONTINUOUS
 10
-100.900002
 20
20.899999999999999
 30
0.0
 11
-100.400002
 21
20.899999999999999
 31
0.0
  0
LINE
  5
2ED
  8
0
  6
CONTINUOUS
 10
-94.199996999999996
 20
21.600000000000001
 30
0.0
 11
-94.300003000000004
 21
21.600000000000001
 31
0.0
  0
LINE
  5
2EE
  8
0
  6
CONTINUOUS
 10
-105.599998
 20
16.0
 30
0.0
 11
-105.699997
 21
16.100000000000001
 31
0.0
  0
LINE
  5
2EF
  8
0
  6
CONTINUOUS
 10
-102.199997
 20
23.299999
 30
0.0
 11
-102.400002
 21
23.299999
 31
0.0
  0
LINE
  5
2F0
  8
0
  6
CONTINUOUS
 10
-101.5
 20
24.0
 30
0.0
 11
-101.599998
 21
24.0
 31
0.0
  0
LINE
  5
2F1
  8
0
  6
CONTINUOUS
 10
-103.199997
 20
23.899999999999999
 30
0.0
 11
-103.199997
 21
23.899999999999999
 31
0.0
  0
LINE
  5
2F2
  8
0
  6
CONTINUOUS
 10
-102.400002
 20
23.100000000000001
 30
0.0
 11
-102.400002
 21
23.100000000000001
 31
0.0
  0
LINE
  5
2F3
  8
0
  6
CONTINUOUS
 10
-103.199997
 20
24.200001
 30
0.0
 11
-103.199997
 21
24.200001
 31
0.0
  0
LINE
  5
2F4
  8
0
  6
CONTINUOUS
 10
-102.400002
 20
23.299999
 30
0.0
 11
-102.400002
 21
23.299999
 31
0.0
  0
LINE
  5
2F5
  8
0
  6
CONTINUOUS
 10
-101.599998
 20
24.200001
 30
0.0
 11
-101.5
 21
24.200001
 31
0.0
  0
LINE
  5
2F6
  8
0
  6
CONTINUOUS
 10
-102.400002
 20
22.899999999999999
 30
0.0
 11
-102.400002
 21
22.899999999999999
 31
0.0
  0
LINE
  5
2F7
  8
0
  6
CONTINUOUS
 10
-102.400002
 20
23.299999
 30
0.0
 11
-102.400002
 21
23.299999
 31
0.0
  0
LINE
  5
2F8
  8
0
  6
CONTINUOUS
 10
-104.300003
 20
23.700001
 30
0.0
 11
-104.300003
 21
23.700001
 31
0.0
  0
LINE
  5
2F9
  8
0
  6
CONTINUOUS
 10
-102.400002
 20
22.899999999999999
 30
0.0
 11
-102.400002
 21
22.899999999999999
 31
0.0
  0
LINE
  5
2FA
  8
0
  6
CONTINUOUS
 10
-102.900002
 20
26.399999999999999
 30
0.0
 11
-102.900002
 21
26.399999999999999
 31
0.0
  0
LINE
  5
2FB
  8
0
  6
CONTINUOUS
 10
-103.199997
 20
25.799999
 30
0.0
 11
-103.199997
 21
25.799999
 31
0.0
  0
LINE
  5
2FC
  8
0
  6
CONTINUOUS
 10
-101.599998
 20
24.799999
 30
0.0
 11
-101.5
 21
24.799999
 31
0.0
  0
LINE
  5
2FD
  8
0
  6
CONTINUOUS
 10
-101.599998
 20
25.200001
 30
0.0
 11
-101.5
 21
25.200001
 31
0.0
  0
LINE
  5
2FE
  8
0
  6
CONTINUOUS
 10
-101.800003
 20
24.700001
 30
0.0
 11
-102.900002
 21
24.700001
 31
0.0
  0
LINE
  5
2FF
  8
0
  6
CONTINUOUS
 10
-101.800003
 20
25.5
 30
0.0
 11
-102.900002
 21
25.5
 31
0.0
  0
LINE
  5
300
  8
0
  6
CONTINUOUS
 10
-103.199997
 20
25.399999999999999
 30
0.0
 11
-103.199997
 21
25.399999999999999
 31
0.0
  0
LINE
  5
301
  8
0
  6
CONTINUOUS
 10
-103.199997
 20
24.799999
 30
0.0
 11
-103.199997
 21
24.799999
 31
0.0
  0
LINE
  5
302
  8
0
  6
CONTINUOUS
 10
-103.199997
 20
25.200001
 30
0.0
 11
-103.199997
 21
25.200001
 31
0.0
  0
LINE
  5
303
  8
0
  6
CONTINUOUS
 10
-103.199997
 20
25.799999
 30
0.0
 11
-103.199997
 21
25.799999
 31
0.0
  0
LINE
  5
304
  8
0
  6
CONTINUOUS
 10
-101.599998
 20
25.799999
 30
0.0
 11
-101.599998
 21
25.799999
 31
0.0
  0
LINE
  5
305
  8
0
  6
CONTINUOUS
 10
-101.800003
 20
26.399999999999999
 30
0.0
 11
-101.800003
 21
26.399999999999999
 31
0.0
  0
LINE
  5
306
  8
0
  6
CONTINUOUS
 10
-103.199997
 20
25.399999999999999
 30
0.0
 11
-103.199997
 21
25.399999999999999
 31
0.0
  0
LINE
  5
307
  8
0
  6
CONTINUOUS
 10
-102.400002
 20
23.0
 30
0.0
 11
-102.400002
 21
23.0
 31
0.0
  0
LINE
  5
308
  8
0
  6
CONTINUOUS
 10
-102.400002
 20
22.899999999999999
 30
0.0
 11
-102.400002
 21
22.899999999999999
 31
0.0
  0
LINE
  5
309
  8
0
  6
CONTINUOUS
 10
-97.900002000000015
 20
16.0
 30
0.0
 11
-98.0
 21
16.100000000000001
 31
0.0
  0
LINE
  5
30A
  8
0
  6
CONTINUOUS
 10
-103.599998
 20
12.699999999999999
 30
0.0
 11
-103.599998
 21
12.6
 31
0.0
  0
LINE
  5
30B
  8
0
  6
CONTINUOUS
 10
-105.400002
 20
13.4
 30
0.0
 11
-105.5
 21
13.699999999999999
 31
0.0
  0
LINE
  5
30C
  8
0
  6
CONTINUOUS
 10
-110.599998
 20
13.5
 30
0.0
 11
-110.599998
 21
13.5
 31
0.0
  0
LINE
  5
30D
  8
0
  6
CONTINUOUS
 10
-110.599998
 20
73.599997999999999
 30
0.0
 11
-110.599998
 21
73.599997999999999
 31
0.0
  0
LINE
  5
30E
  8
0
  6
CONTINUOUS
 10
-99.199996999999996
 20
29.100000000000001
 30
0.0
 11
-99.199996999999996
 21
29.100000000000001
 31
0.0
  0
LINE
  5
30F
  8
0
  6
CONTINUOUS
 10
-100.699997
 20
27.600000000000001
 30
0.0
 11
-100.699997
 21
27.600000000000001
 31
0.0
  0
LINE
  5
310
  8
0
  6
CONTINUOUS
 10
-105.5
 20
29.100000000000001
 30
0.0
 11
-105.400002
 21
29.100000000000001
 31
0.0
  0
LINE
  5
311
  8
0
  6
CONTINUOUS
 10
-99.300003000000004
 20
29.100000000000001
 30
0.0
 11
-99.300003000000004
 21
29.100000000000001
 31
0.0
  0
LINE
  5
312
  8
0
  6
CONTINUOUS
 10
-105.599998
 20
29.100000000000001
 30
0.0
 11
-105.599998
 21
29.100000000000001
 31
0.0
  0
LINE
  5
313
  8
0
  6
CONTINUOUS
 10
-105.400002
 20
29.100000000000001
 30
0.0
 11
-105.400002
 21
29.100000000000001
 31
0.0
  0
LINE
  5
314
  8
0
  6
CONTINUOUS
 10
-101.599998
 20
26.299999
 30
0.0
 11
-101.699997
 21
26.299999
 31
0.0
  0
LINE
  5
315
  8
0
  6
CONTINUOUS
 10
-103.599998
 20
12.699999999999999
 30
0.0
 11
-103.599998
 21
12.699999999999999
 31
0.0
  0
LINE
  5
316
  8
0
  6
CONTINUOUS
 10
-110.599998
 20
13.5
 30
0.0
 11
-110.599998
 21
73.599997999999999
 31
0.0
  0
LINE
  5
317
  8
0
  6
CONTINUOUS
 10
-110.599998
 20
13.5
 30
0.0
 11
-110.599998
 21
73.599997999999999
 31
0.0
  0
LINE
  5
318
  8
0
  6
CONTINUOUS
 10
-109.300003
 20
11.9
 30
0.0
 11
-109.300003
 21
13.4
 31
0.0
  0
LINE
  5
319
  8
0
  6
CONTINUOUS
 10
-104.5
 20
30.299999
 30
0.0
 11
-104.400002
 21
30.399999999999999
 31
0.0
  0
LINE
  5
31A
  8
0
  6
CONTINUOUS
 10
-105.400002
 20
29.100000000000001
 30
0.0
 11
-105.400002
 21
29.100000000000001
 31
0.0
  0
LINE
  5
31B
  8
0
  6
CONTINUOUS
 10
-103.0
 20
31.200001
 30
0.0
 11
-103.300003
 21
31.100000000000001
 31
0.0
  0
LINE
  5
31C
  8
0
  6
CONTINUOUS
 10
-102.900002
 20
31.399999999999999
 30
0.0
 11
-102.900002
 21
31.399999999999999
 31
0.0
  0
LINE
  5
31D
  8
0
  6
CONTINUOUS
 10
-100.400002
 20
30.399999999999999
 30
0.0
 11
-100.400002
 21
30.399999999999999
 31
0.0
  0
LINE
  5
31E
  8
0
  6
CONTINUOUS
 10
-100.400002
 20
30.299999
 30
0.0
 11
-101.199997
 21
30.299999
 31
0.0
  0
LINE
  5
31F
  8
0
  6
CONTINUOUS
 10
-103.599998
 20
30.299999
 30
0.0
 11
-104.400002
 21
30.299999
 31
0.0
  0
LINE
  5
320
  8
0
  6
CONTINUOUS
 10
-100.300003
 20
30.399999999999999
 30
0.0
 11
-101.199997
 21
30.399999999999999
 31
0.0
  0
LINE
  5
321
  8
0
  6
CONTINUOUS
 10
-103.599998
 20
30.399999999999999
 30
0.0
 11
-104.400002
 21
30.399999999999999
 31
0.0
  0
LINE
  5
322
  8
0
  6
CONTINUOUS
 10
-100.400002
 20
30.399999999999999
 30
0.0
 11
-101.199997
 21
30.399999999999999
 31
0.0
  0
LINE
  5
323
  8
0
  6
CONTINUOUS
 10
-103.599998
 20
30.399999999999999
 30
0.0
 11
-104.400002
 21
30.399999999999999
 31
0.0
  0
LINE
  5
324
  8
0
  6
CONTINUOUS
 10
-101.300003
 20
31.200001
 30
0.0
 11
-101.5
 21
31.200001
 31
0.0
  0
LINE
  5
325
  8
0
  6
CONTINUOUS
 10
-103.300003
 20
31.200001
 30
0.0
 11
-103.400002
 21
31.200001
 31
0.0
  0
LINE
  5
326
  8
0
  6
CONTINUOUS
 10
-101.900002
 20
31.399999999999999
 30
0.0
 11
-102.900002
 21
31.399999999999999
 31
0.0
  0
LINE
  5
327
  8
0
  6
CONTINUOUS
 10
-103.400002
 20
31.799999
 30
0.0
 11
-103.400002
 21
31.799999
 31
0.0
  0
LINE
  5
328
  8
0
  6
CONTINUOUS
 10
-104.400002
 20
30.399999999999999
 30
0.0
 11
-104.400002
 21
30.399999999999999
 31
0.0
  0
LINE
  5
329
  8
0
  6
CONTINUOUS
 10
-101.5
 20
31.100000000000001
 30
0.0
 11
-101.699997
 21
31.200001
 31
0.0
  0
LINE
  5
32A
  8
0
  6
CONTINUOUS
 10
-99.400002000000001
 20
29.100000000000001
 30
0.0
 11
-99.400002000000001
 21
29.100000000000001
 31
0.0
  0
LINE
  5
32B
  8
0
  6
CONTINUOUS
 10
-100.300003
 20
30.299999
 30
0.0
 11
-100.300003
 21
30.399999999999999
 31
0.0
  0
LINE
  5
32C
  8
0
  6
CONTINUOUS
 10
-101.5
 20
31.100000000000001
 30
0.0
 11
-101.5
 21
31.100000000000001
 31
0.0
  0
LINE
  5
32D
  8
0
  6
CONTINUOUS
 10
-102.400002
 20
31.100000000000001
 30
0.0
 11
-102.400002
 21
31.100000000000001
 31
0.0
  0
LINE
  5
32E
  8
0
  6
CONTINUOUS
 10
-101.599998
 20
26.299999
 30
0.0
 11
-101.599998
 21
26.299999
 31
0.0
  0
LINE
  5
32F
  8
0
  6
CONTINUOUS
 10
-101.599998
 20
26.200001
 30
0.0
 11
-101.599998
 21
26.200001
 31
0.0
  0
LINE
  5
330
  8
0
  6
CONTINUOUS
 10
-100.400002
 20
23.700001
 30
0.0
 11
-100.400002
 21
23.700001
 31
0.0
  0
LINE
  5
331
  8
0
  6
CONTINUOUS
 10
-102.400002
 20
22.899999999999999
 30
0.0
 11
-102.400002
 21
22.899999999999999
 31
0.0
  0
LINE
  5
332
  8
0
  6
CONTINUOUS
 10
-108.400002
 20
13.9
 30
0.0
 11
-108.400002
 21
12.4
 31
0.0
  0
LINE
  5
333
  8
0
  6
CONTINUOUS
 10
-106.900002
 20
15.9
 30
0.0
 11
-106.900002
 21
72.599997999999999
 31
0.0
  0
LINE
  5
334
  8
0
  6
CONTINUOUS
 10
-106.900002
 20
72.599997999999999
 30
0.0
 11
-106.900002
 21
15.9
 31
0.0
  0
LINE
  5
335
  8
0
  6
CONTINUOUS
 10
-106.900002
 20
72.5
 30
0.0
 11
-106.900002
 21
16.0
 31
0.0
  0
LINE
  5
336
  8
0
  6
CONTINUOUS
 10
-102.300003
 20
34.200001
 30
0.0
 11
-102.5
 21
34.200001
 31
0.0
  0
LINE
  5
337
  8
0
  6
CONTINUOUS
 10
-101.800003
 20
31.899999999999999
 30
0.0
 11
-101.699997
 21
31.899999999999999
 31
0.0
  0
LINE
  5
338
  8
0
  6
CONTINUOUS
 10
-101.699997
 20
31.899999999999999
 30
0.0
 11
-101.400002
 21
31.799999
 31
0.0
  0
LINE
  5
339
  8
0
  6
CONTINUOUS
 10
-102.400002
 20
31.100000000000001
 30
0.0
 11
-102.400002
 21
31.100000000000001
 31
0.0
  0
LINE
  5
33A
  8
0
  6
CONTINUOUS
 10
-101.400002
 20
31.100000000000001
 30
0.0
 11
-101.400002
 21
31.100000000000001
 31
0.0
  0
LINE
  5
33B
  8
0
  6
CONTINUOUS
 10
-101.800003
 20
31.899999999999999
 30
0.0
 11
-101.800003
 21
31.899999999999999
 31
0.0
  0
LINE
  5
33C
  8
0
  6
CONTINUOUS
 10
-101.800003
 20
31.399999999999999
 30
0.0
 11
-101.900002
 21
31.399999999999999
 31
0.0
  0
LINE
  5
33D
  8
0
  6
CONTINUOUS
 10
-100.599998
 20
28.299999
 30
0.0
 11
-100.599998
 21
28.399999999999999
 31
0.0
  0
LINE
  5
33E
  8
0
  6
CONTINUOUS
 10
-100.199997
 20
28.0
 30
0.0
 11
-100.5
 21
28.200001
 31
0.0
  0
LINE
  5
33F
  8
0
  6
CONTINUOUS
 10
-100.699997
 20
27.399999999999999
 30
0.0
 11
-100.699997
 21
27.399999999999999
 31
0.0
  0
LINE
  5
340
  8
0
  6
CONTINUOUS
 10
-103.900002
 20
31.5
 30
0.0
 11
-103.900002
 21
31.5
 31
0.0
  0
LINE
  5
341
  8
0
  6
CONTINUOUS
 10
-100.699997
 20
27.399999999999999
 30
0.0
 11
-100.699997
 21
27.399999999999999
 31
0.0
  0
LINE
  5
342
  8
0
  6
CONTINUOUS
 10
-101.599998
 20
25.899999999999999
 30
0.0
 11
-101.599998
 21
25.899999999999999
 31
0.0
  0
LINE
  5
343
  8
0
  6
CONTINUOUS
 10
-104.300003
 20
23.600000000000001
 30
0.0
 11
-104.300003
 21
23.600000000000001
 31
0.0
  0
LINE
  5
344
  8
0
  6
CONTINUOUS
 10
-104.300003
 20
23.700001
 30
0.0
 11
-104.300003
 21
23.600000000000001
 31
0.0
  0
LINE
  5
345
  8
0
  6
CONTINUOUS
 10
-102.400002
 20
23.299999
 30
0.0
 11
-102.400002
 21
23.299999
 31
0.0
  0
LINE
  5
346
  8
0
  6
CONTINUOUS
 10
-104.300003
 20
23.700001
 30
0.0
 11
-104.300003
 21
23.700001
 31
0.0
  0
LINE
  5
347
  8
0
  6
CONTINUOUS
 10
-103.599998
 20
12.699999999999999
 30
0.0
 11
-103.599998
 21
12.699999999999999
 31
0.0
  0
LINE
  5
348
  8
0
  6
CONTINUOUS
 10
-103.900002
 20
22.899999999999999
 30
0.0
 11
-103.900002
 21
22.700001
 31
0.0
  0
LINE
  5
349
  8
0
  6
CONTINUOUS
 10
-104.0
 20
31.600000000000001
 30
0.0
 11
-103.900002
 21
31.5
 31
0.0
  0
LINE
  5
34A
  8
0
  6
CONTINUOUS
 10
-103.900002
 20
22.700001
 30
0.0
 11
-103.900002
 21
22.399999999999999
 31
0.0
  0
LINE
  5
34B
  8
0
  6
CONTINUOUS
 10
-104.400002
 20
24.5
 30
0.0
 11
-104.400002
 21
24.100000000000001
 31
0.0
  0
LINE
  5
34C
  8
0
  6
CONTINUOUS
 10
-103.699997
 20
13.199999999999999
 30
0.0
 11
-103.699997
 21
13.1
 31
0.0
  0
LINE
  5
34D
  8
0
  6
CONTINUOUS
 10
-105.300003
 20
24.700001
 30
0.0
 11
-105.400002
 21
29.0
 31
0.0
  0
LINE
  5
34E
  8
0
  6
CONTINUOUS
 10
-104.5
 20
28.0
 30
0.0
 11
-104.5
 21
29.100000000000001
 31
0.0
  0
LINE
  5
34F
  8
0
  6
CONTINUOUS
 10
-105.599998
 20
29.399999999999999
 30
0.0
 11
-105.599998
 21
29.399999999999999
 31
0.0
  0
LINE
  5
350
  8
0
  6
CONTINUOUS
 10
-106.800003
 20
13.9
 30
0.0
 11
-106.800003
 21
12.4
 31
0.0
  0
LINE
  5
351
  8
0
  6
CONTINUOUS
 10
-106.800003
 20
72.5
 30
0.0
 11
-106.800003
 21
16.100000000000001
 31
0.0
  0
LINE
  5
352
  8
0
  6
CONTINUOUS
 10
-105.699997
 20
32.099997999999999
 30
0.0
 11
-105.699997
 21
16.100000000000001
 31
0.0
  0
LINE
  5
353
  8
0
  6
CONTINUOUS
 10
-105.599998
 20
15.800000000000001
 30
0.0
 11
-105.599998
 21
16.0
 31
0.0
  0
LINE
  5
354
  8
0
  6
CONTINUOUS
 10
-105.599998
 20
16.0
 30
0.0
 11
-105.599998
 21
15.800000000000001
 31
0.0
  0
LINE
  5
355
  8
0
  6
CONTINUOUS
 10
-105.599998
 20
32.099997999999999
 30
0.0
 11
-105.599998
 21
16.0
 31
0.0
  0
LINE
  5
356
  8
0
  6
CONTINUOUS
 10
-105.599998
 20
30.700001
 30
0.0
 11
-105.599998
 21
29.399999999999999
 31
0.0
  0
LINE
  5
357
  8
0
  6
CONTINUOUS
 10
-105.199997
 20
17.299999
 30
0.0
 11
-105.199997
 21
20.100000000000001
 31
0.0
  0
LINE
  5
358
  8
0
  6
CONTINUOUS
 10
-104.699997
 20
17.299999
 30
0.0
 11
-104.699997
 21
20.100000000000001
 31
0.0
  0
LINE
  5
359
  8
0
  6
CONTINUOUS
 10
-104.5
 20
29.299999
 30
0.0
 11
-104.5
 21
31.200001
 31
0.0
  0
LINE
  5
35A
  8
0
  6
CONTINUOUS
 10
-105.400002
 20
29.100000000000001
 30
0.0
 11
-105.400002
 21
29.100000000000001
 31
0.0
  0
LINE
  5
35B
  8
0
  6
CONTINUOUS
 10
-105.400002
 20
29.0
 30
0.0
 11
-105.400002
 21
29.100000000000001
 31
0.0
  0
LINE
  5
35C
  8
0
  6
CONTINUOUS
 10
-102.5
 20
34.700001
 30
0.0
 11
-102.300003
 21
34.700001
 31
0.0
  0
LINE
  5
35D
  8
0
  6
CONTINUOUS
 10
-101.599998
 20
31.200001
 30
0.0
 11
-101.800003
 21
31.399999999999999
 31
0.0
  0
LINE
  5
35E
  8
0
  6
CONTINUOUS
 10
-101.400002
 20
31.100000000000001
 30
0.0
 11
-101.400002
 21
31.100000000000001
 31
0.0
  0
LINE
  5
35F
  8
0
  6
CONTINUOUS
 10
-101.599998
 20
25.899999999999999
 30
0.0
 11
-101.5
 21
25.799999
 31
0.0
  0
LINE
  5
360
  8
0
  6
CONTINUOUS
 10
-103.199997
 20
25.5
 30
0.0
 11
-103.199997
 21
25.5
 31
0.0
  0
LINE
  5
361
  8
0
  6
CONTINUOUS
 10
-101.5
 20
26.100000000000001
 30
0.0
 11
-101.5
 21
26.200001
 31
0.0
  0
LINE
  5
362
  8
0
  6
CONTINUOUS
 10
-103.800003
 20
16.399999999999999
 30
0.0
 11
-103.800003
 21
16.0
 31
0.0
  0
LINE
  5
363
  8
0
  6
CONTINUOUS
 10
-104.099998
 20
28.5
 30
0.0
 11
-104.099998
 21
28.5
 31
0.0
  0
LINE
  5
364
  8
0
  6
CONTINUOUS
 10
-103.800003
 20
17.600000000000001
 30
0.0
 11
-103.800003
 21
17.200001
 31
0.0
  0
LINE
  5
365
  8
0
  6
CONTINUOUS
 10
-104.099998
 20
28.5
 30
0.0
 11
-104.099998
 21
28.399999999999999
 31
0.0
  0
LINE
  5
366
  8
0
  6
CONTINUOUS
 10
-103.800003
 20
18.700001
 30
0.0
 11
-103.800003
 21
18.200001
 31
0.0
  0
LINE
  5
367
  8
0
  6
CONTINUOUS
 10
-104.099998
 20
28.399999999999999
 30
0.0
 11
-104.099998
 21
28.399999999999999
 31
0.0
  0
LINE
  5
368
  8
0
  6
CONTINUOUS
 10
-103.800003
 20
21.399999999999999
 30
0.0
 11
-103.800003
 21
20.799999
 31
0.0
  0
LINE
  5
369
  8
0
  6
CONTINUOUS
 10
-104.099998
 20
28.399999999999999
 30
0.0
 11
-104.099998
 21
28.399999999999999
 31
0.0
  0
LINE
  5
36A
  8
0
  6
CONTINUOUS
 10
-103.800003
 20
20.799999
 30
0.0
 11
-103.800003
 21
19.399999999999999
 31
0.0
  0
LINE
  5
36B
  8
0
  6
CONTINUOUS
 10
-103.800003
 20
20.799999
 30
0.0
 11
-103.800003
 21
20.700001
 31
0.0
  0
LINE
  5
36C
  8
0
  6
CONTINUOUS
 10
-104.099998
 20
28.399999999999999
 30
0.0
 11
-104.099998
 21
28.399999999999999
 31
0.0
  0
LINE
  5
36D
  8
0
  6
CONTINUOUS
 10
-104.400002
 20
30.399999999999999
 30
0.0
 11
-104.400002
 21
31.100000000000001
 31
0.0
  0
LINE
  5
36E
  8
0
  6
CONTINUOUS
 10
-104.400002
 20
30.399999999999999
 30
0.0
 11
-104.400002
 21
30.399999999999999
 31
0.0
  0
LINE
  5
36F
  8
0
  6
CONTINUOUS
 10
-104.0
 20
29.200001
 30
0.0
 11
-104.0
 21
29.899999999999999
 31
0.0
  0
LINE
  5
370
  8
0
  6
CONTINUOUS
 10
-103.800003
 20
29.899999999999999
 30
0.0
 11
-103.800003
 21
29.5
 31
0.0
  0
LINE
  5
371
  8
0
  6
CONTINUOUS
 10
-103.599998
 20
62.299999
 30
0.0
 11
-103.599998
 21
61.5
 31
0.0
  0
LINE
  5
372
  8
0
  6
CONTINUOUS
 10
-103.599998
 20
60.5
 30
0.0
 11
-103.599998
 21
59.700001
 31
0.0
  0
LINE
  5
373
  8
0
  6
CONTINUOUS
 10
-103.599998
 20
58.700001
 30
0.0
 11
-103.599998
 21
57.900002000000001
 31
0.0
  0
LINE
  5
374
  8
0
  6
CONTINUOUS
 10
-103.400002
 20
30.799999
 30
0.0
 11
-103.400002
 21
31.200001
 31
0.0
  0
LINE
  5
375
  8
0
  6
CONTINUOUS
 10
-103.400002
 20
31.100000000000001
 30
0.0
 11
-103.400002
 21
30.899999999999999
 31
0.0
  0
LINE
  5
376
  8
0
  6
CONTINUOUS
 10
-103.199997
 20
25.5
 30
0.0
 11
-103.199997
 21
25.799999
 31
0.0
  0
LINE
  5
377
  8
0
  6
CONTINUOUS
 10
-103.199997
 20
23.700001
 30
0.0
 11
-103.199997
 21
26.200001
 31
0.0
  0
LINE
  5
378
  8
0
  6
CONTINUOUS
 10
-102.900002
 20
24.700001
 30
0.0
 11
-102.900002
 21
25.5
 31
0.0
  0
LINE
  5
379
  8
0
  6
CONTINUOUS
 10
-102.5
 20
34.900002000000001
 30
0.0
 11
-102.5
 21
34.700001
 31
0.0
  0
LINE
  5
37A
  8
0
  6
CONTINUOUS
 10
-102.5
 20
34.0
 30
0.0
 11
-102.5
 21
34.200001
 31
0.0
  0
LINE
  5
37B
  8
0
  6
CONTINUOUS
 10
-102.400002
 20
12.5
 30
0.0
 11
-102.400002
 21
23.299999
 31
0.0
  0
LINE
  5
37C
  8
0
  6
CONTINUOUS
 10
-102.400002
 20
26.399999999999999
 30
0.0
 11
-102.400002
 21
31.299999
 31
0.0
  0
LINE
  5
37D
  8
0
  6
CONTINUOUS
 10
-102.400002
 20
22.899999999999999
 30
0.0
 11
-102.400002
 21
23.0
 31
0.0
  0
LINE
  5
37E
  8
0
  6
CONTINUOUS
 10
-102.400002
 20
12.5
 30
0.0
 11
-102.400002
 21
23.299999
 31
0.0
  0
LINE
  5
37F
  8
0
  6
CONTINUOUS
 10
-102.400002
 20
26.399999999999999
 30
0.0
 11
-102.400002
 21
31.299999
 31
0.0
  0
LINE
  5
380
  8
0
  6
CONTINUOUS
 10
-102.300003
 20
34.0
 30
0.0
 11
-102.300003
 21
34.200001
 31
0.0
  0
LINE
  5
381
  8
0
  6
CONTINUOUS
 10
-102.300003
 20
34.700001
 30
0.0
 11
-102.300003
 21
34.900002000000001
 31
0.0
  0
LINE
  5
382
  8
0
  6
CONTINUOUS
 10
-103.199997
 20
24.700001
 30
0.0
 11
-103.199997
 21
26.100000000000001
 31
0.0
  0
LINE
  5
383
  8
0
  6
CONTINUOUS
 10
-103.199997
 20
24.0
 30
0.0
 11
-103.199997
 21
24.700001
 31
0.0
  0
LINE
  5
384
  8
0
  6
CONTINUOUS
 10
-104.099998
 20
27.399999999999999
 30
0.0
 11
-104.099998
 21
26.899999999999999
 31
0.0
  0
LINE
  5
385
  8
0
  6
CONTINUOUS
 10
-102.900002
 20
25.5
 30
0.0
 11
-102.900002
 21
25.5
 31
0.0
  0
LINE
  5
386
  8
0
  6
CONTINUOUS
 10
-103.400002
 20
31.799999
 30
0.0
 11
-103.400002
 21
31.799999
 31
0.0
  0
LINE
  5
387
  8
0
  6
CONTINUOUS
 10
-103.400002
 20
31.200001
 30
0.0
 11
-103.400002
 21
30.899999999999999
 31
0.0
  0
LINE
  5
388
  8
0
  6
CONTINUOUS
 10
-103.400002
 20
31.100000000000001
 30
0.0
 11
-103.400002
 21
31.200001
 31
0.0
  0
LINE
  5
389
  8
0
  6
CONTINUOUS
 10
-104.099998
 20
26.899999999999999
 30
0.0
 11
-104.099998
 21
26.5
 31
0.0
  0
LINE
  5
38A
  8
0
  6
CONTINUOUS
 10
-104.099998
 20
28.5
 30
0.0
 11
-104.099998
 21
28.5
 31
0.0
  0
LINE
  5
38B
  8
0
  6
CONTINUOUS
 10
-103.199997
 20
26.200001
 30
0.0
 11
-103.199997
 21
26.100000000000001
 31
0.0
  0
LINE
  5
38C
  8
0
  6
CONTINUOUS
 10
-100.900002
 20
29.299999
 30
0.0
 11
-101.0
 21
29.600000000000001
 31
0.0
  0
LINE
  5
38D
  8
0
  6
CONTINUOUS
 10
-101.0
 20
29.600000000000001
 30
0.0
 11
-101.099998
 21
29.600000000000001
 31
0.0
  0
LINE
  5
38E
  8
0
  6
CONTINUOUS
 10
-101.0
 20
29.600000000000001
 30
0.0
 11
-101.0
 21
29.600000000000001
 31
0.0
  0
LINE
  5
38F
  8
0
  6
CONTINUOUS
 10
-101.400002
 20
31.0
 30
0.0
 11
-101.400002
 21
31.100000000000001
 31
0.0
  0
LINE
  5
390
  8
0
  6
CONTINUOUS
 10
-100.699997
 20
28.600000000000001
 30
0.0
 11
-100.699997
 21
28.700001
 31
0.0
  0
LINE
  5
391
  8
0
  6
CONTINUOUS
 10
-100.599998
 20
27.299999
 30
0.0
 11
-100.699997
 21
27.399999999999999
 31
0.0
  0
LINE
  5
392
  8
0
  6
CONTINUOUS
 10
-101.099998
 20
29.600000000000001
 30
0.0
 11
-101.099998
 21
29.600000000000001
 31
0.0
  0
LINE
  5
393
  8
0
  6
CONTINUOUS
 10
-101.699997
 20
31.899999999999999
 30
0.0
 11
-101.699997
 21
31.899999999999999
 31
0.0
  0
LINE
  5
394
  8
0
  6
CONTINUOUS
 10
-101.300003
 20
30.799999
 30
0.0
 11
-101.400002
 21
31.0
 31
0.0
  0
LINE
  5
395
  8
0
  6
CONTINUOUS
 10
-100.599998
 20
28.5
 30
0.0
 11
-100.699997
 21
28.600000000000001
 31
0.0
  0
LINE
  5
396
  8
0
  6
CONTINUOUS
 10
-101.199997
 20
30.399999999999999
 30
0.0
 11
-101.199997
 21
30.5
 31
0.0
  0
LINE
  5
397
  8
0
  6
CONTINUOUS
 10
-101.199997
 20
30.399999999999999
 30
0.0
 11
-101.199997
 21
30.399999999999999
 31
0.0
  0
LINE
  5
398
  8
0
  6
CONTINUOUS
 10
-101.199997
 20
30.200001
 30
0.0
 11
-101.199997
 21
30.399999999999999
 31
0.0
  0
LINE
  5
399
  8
0
  6
CONTINUOUS
 10
-101.699997
 20
24.0
 30
0.0
 11
-101.699997
 21
24.0
 31
0.0
  0
LINE
  5
39A
  8
0
  6
CONTINUOUS
 10
-101.0
 20
19.799999
 30
0.0
 11
-101.0
 21
19.799999
 31
0.0
  0
LINE
  5
39B
  8
0
  6
CONTINUOUS
 10
-100.599998
 20
26.100000000000001
 30
0.0
 11
-100.599998
 21
26.5
 31
0.0
  0
LINE
  5
39C
  8
0
  6
CONTINUOUS
 10
-101.0
 20
19.799999
 30
0.0
 11
-101.0
 21
19.799999
 31
0.0
  0
LINE
  5
39D
  8
0
  6
CONTINUOUS
 10
-100.599998
 20
28.5
 30
0.0
 11
-100.599998
 21
28.5
 31
0.0
  0
LINE
  5
39E
  8
0
  6
CONTINUOUS
 10
-100.599998
 20
26.5
 30
0.0
 11
-100.599998
 21
26.899999999999999
 31
0.0
  0
LINE
  5
39F
  8
0
  6
CONTINUOUS
 10
-101.400002
 20
31.100000000000001
 30
0.0
 11
-101.400002
 21
31.200001
 31
0.0
  0
LINE
  5
3A0
  8
0
  6
CONTINUOUS
 10
-101.0
 20
19.799999
 30
0.0
 11
-101.0
 21
19.799999
 31
0.0
  0
LINE
  5
3A1
  8
0
  6
CONTINUOUS
 10
-101.5
 20
26.100000000000001
 30
0.0
 11
-101.5
 21
25.5
 31
0.0
  0
LINE
  5
3A2
  8
0
  6
CONTINUOUS
 10
-101.5
 20
24.700001
 30
0.0
 11
-101.5
 21
24.0
 31
0.0
  0
LINE
  5
3A3
  8
0
  6
CONTINUOUS
 10
-101.800003
 20
25.5
 30
0.0
 11
-101.800003
 21
24.700001
 31
0.0
  0
LINE
  5
3A4
  8
0
  6
CONTINUOUS
 10
-101.599998
 20
23.700001
 30
0.0
 11
-101.599998
 21
26.200001
 31
0.0
  0
LINE
  5
3A5
  8
0
  6
CONTINUOUS
 10
-101.5
 20
25.799999
 30
0.0
 11
-101.5
 21
25.5
 31
0.0
  0
LINE
  5
3A6
  8
0
  6
CONTINUOUS
 10
-101.400002
 20
31.100000000000001
 30
0.0
 11
-101.400002
 21
30.899999999999999
 31
0.0
  0
LINE
  5
3A7
  8
0
  6
CONTINUOUS
 10
-101.300003
 20
30.799999
 30
0.0
 11
-101.300003
 21
31.200001
 31
0.0
  0
LINE
  5
3A8
  8
0
  6
CONTINUOUS
 10
-101.199997
 20
57.900002000000001
 30
0.0
 11
-101.199997
 21
58.700001
 31
0.0
  0
LINE
  5
3A9
  8
0
  6
CONTINUOUS
 10
-101.199997
 20
59.700001
 30
0.0
 11
-101.199997
 21
60.5
 31
0.0
  0
LINE
  5
3AA
  8
0
  6
CONTINUOUS
 10
-101.199997
 20
61.5
 30
0.0
 11
-101.199997
 21
62.299999
 31
0.0
  0
LINE
  5
3AB
  8
0
  6
CONTINUOUS
 10
-101.0
 20
29.5
 30
0.0
 11
-101.0
 21
29.899999999999999
 31
0.0
  0
LINE
  5
3AC
  8
0
  6
CONTINUOUS
 10
-100.699997
 20
29.899999999999999
 30
0.0
 11
-100.699997
 21
29.200001
 31
0.0
  0
LINE
  5
3AD
  8
0
  6
CONTINUOUS
 10
-100.300003
 20
30.399999999999999
 30
0.0
 11
-100.300003
 21
30.399999999999999
 31
0.0
  0
LINE
  5
3AE
  8
0
  6
CONTINUOUS
 10
-100.300003
 20
31.100000000000001
 30
0.0
 11
-100.300003
 21
30.399999999999999
 31
0.0
  0
LINE
  5
3AF
  8
0
  6
CONTINUOUS
 10
-100.199997
 20
31.200001
 30
0.0
 11
-100.199997
 21
29.299999
 31
0.0
  0
LINE
  5
3B0
  8
0
  6
CONTINUOUS
 10
-100.099998
 20
20.100000000000001
 30
0.0
 11
-100.099998
 21
17.299999
 31
0.0
  0
LINE
  5
3B1
  8
0
  6
CONTINUOUS
 10
-99.900002000000001
 20
11.9
 30
0.0
 11
-99.900002000000001
 21
13.4
 31
0.0
  0
LINE
  5
3B2
  8
0
  6
CONTINUOUS
 10
-101.5
 20
25.5
 30
0.0
 11
-101.5
 21
24.700001
 31
0.0
  0
LINE
  5
3B3
  8
0
  6
CONTINUOUS
 10
-100.599998
 20
27.200001
 30
0.0
 11
-100.599998
 21
27.299999
 31
0.0
  0
LINE
  5
3B4
  8
0
  6
CONTINUOUS
 10
-100.900002
 20
20.700001
 30
0.0
 11
-100.900002
 21
20.799999
 31
0.0
  0
LINE
  5
3B5
  8
0
  6
CONTINUOUS
 10
-100.599998
 20
28.200001
 30
0.0
 11
-100.599998
 21
28.399999999999999
 31
0.0
  0
LINE
  5
3B6
  8
0
  6
CONTINUOUS
 10
-101.0
 20
18.299999
 30
0.0
 11
-101.0
 21
19.799999
 31
0.0
  0
LINE
  5
3B7
  8
0
  6
CONTINUOUS
 10
-100.599998
 20
27.700001
 30
0.0
 11
-100.599998
 21
28.0
 31
0.0
  0
LINE
  5
3B8
  8
0
  6
CONTINUOUS
 10
-100.599998
 20
28.399999999999999
 30
0.0
 11
-100.599998
 21
28.5
 31
0.0
  0
LINE
  5
3B9
  8
0
  6
CONTINUOUS
 10
-100.599998
 20
28.0
 30
0.0
 11
-100.599998
 21
28.200001
 31
0.0
  0
LINE
  5
3BA
  8
0
  6
CONTINUOUS
 10
-100.199997
 20
29.100000000000001
 30
0.0
 11
-100.300003
 21
28.0
 31
0.0
  0
LINE
  5
3BB
  8
0
  6
CONTINUOUS
 10
-100.599998
 20
28.5
 30
0.0
 11
-100.599998
 21
28.5
 31
0.0
  0
LINE
  5
3BC
  8
0
  6
CONTINUOUS
 10
-101.099998
 20
12.699999999999999
 30
0.0
 11
-101.099998
 21
13.1
 31
0.0
  0
LINE
  5
3BD
  8
0
  6
CONTINUOUS
 10
-101.099998
 20
12.9
 30
0.0
 11
-101.099998
 21
14.800000000000001
 31
0.0
  0
LINE
  5
3BE
  8
0
  6
CONTINUOUS
 10
-100.900002
 20
22.0
 30
0.0
 11
-100.900002
 21
22.399999999999999
 31
0.0
  0
LINE
  5
3BF
  8
0
  6
CONTINUOUS
 10
-101.5
 20
24.0
 30
0.0
 11
-101.599998
 21
23.799999
 31
0.0
  0
LINE
  5
3C0
  8
0
  6
CONTINUOUS
 10
-104.300003
 20
25.600000000000001
 30
0.0
 11
-104.300003
 21
25.200001
 31
0.0
  0
LINE
  5
3C1
  8
0
  6
CONTINUOUS
 10
-103.400002
 20
31.0
 30
0.0
 11
-103.400002
 21
31.0
 31
0.0
  0
LINE
  5
3C2
  8
0
  6
CONTINUOUS
 10
-103.199997
 20
26.299999
 30
0.0
 11
-103.199997
 21
26.200001
 31
0.0
  0
LINE
  5
3C3
  8
0
  6
CONTINUOUS
 10
-103.5
 20
30.399999999999999
 30
0.0
 11
-103.599998
 21
30.299999
 31
0.0
  0
LINE
  5
3C4
  8
0
  6
CONTINUOUS
 10
-103.599998
 20
30.200001
 30
0.0
 11
-103.599998
 21
30.0
 31
0.0
  0
LINE
  5
3C5
  8
0
  6
CONTINUOUS
 10
-103.599998
 20
30.299999
 30
0.0
 11
-103.599998
 21
30.200001
 31
0.0
  0
LINE
  5
3C6
  8
0
  6
CONTINUOUS
 10
-103.5
 20
30.399999999999999
 30
0.0
 11
-103.5
 21
30.399999999999999
 31
0.0
  0
LINE
  5
3C7
  8
0
  6
CONTINUOUS
 10
-104.099998
 20
28.600000000000001
 30
0.0
 11
-104.099998
 21
28.5
 31
0.0
  0
LINE
  5
3C8
  8
0
  6
CONTINUOUS
 10
-103.5
 20
30.5
 30
0.0
 11
-103.5
 21
30.399999999999999
 31
0.0
  0
LINE
  5
3C9
  8
0
  6
CONTINUOUS
 10
-103.699997
 20
29.600000000000001
 30
0.0
 11
-103.699997
 21
29.600000000000001
 31
0.0
  0
LINE
  5
3CA
  8
0
  6
CONTINUOUS
 10
-103.400002
 20
31.0
 30
0.0
 11
-103.400002
 21
31.0
 31
0.0
  0
LINE
  5
3CB
  8
0
  6
CONTINUOUS
 10
-104.099998
 20
28.700001
 30
0.0
 11
-104.099998
 21
28.600000000000001
 31
0.0
  0
LINE
  5
3CC
  8
0
  6
CONTINUOUS
 10
-103.699997
 20
29.700001
 30
0.0
 11
-103.699997
 21
29.600000000000001
 31
0.0
  0
LINE
  5
3CD
  8
0
  6
CONTINUOUS
 10
-103.400002
 20
31.100000000000001
 30
0.0
 11
-103.400002
 21
31.0
 31
0.0
  0
LINE
  5
3CE
  8
0
  6
CONTINUOUS
 10
-103.699997
 20
29.600000000000001
 30
0.0
 11
-103.800003
 21
29.600000000000001
 31
0.0
  0
LINE
  5
3CF
  8
0
  6
CONTINUOUS
 10
-103.699997
 20
29.700001
 30
0.0
 11
-103.800003
 21
29.600000000000001
 31
0.0
  0
LINE
  5
3D0
  8
0
  6
CONTINUOUS
 10
-104.0
 20
29.0
 30
0.0
 11
-104.099998
 21
28.700001
 31
0.0
  0
LINE
  5
3D1
  8
0
  6
CONTINUOUS
 10
-109.800003
 20
13.4
 30
0.0
 11
-109.599998
 21
13.699999999999999
 31
0.0
  0
LINE
  5
3D2
  8
0
  6
CONTINUOUS
 10
-103.400002
 20
31.0
 30
0.0
 11
-103.400002
 21
31.100000000000001
 31
0.0
  0
LINE
  5
3D3
  8
0
  6
CONTINUOUS
 10
-95.599997999999985
 20
13.699999999999999
 30
0.0
 11
-95.599997999999985
 21
13.800000000000001
 31
0.0
  0
LINE
  5
3D4
  8
0
  6
CONTINUOUS
 10
-95.599997999999985
 20
13.9
 30
0.0
 11
-95.599997999999985
 21
13.9
 31
0.0
  0
LINE
  5
3D5
  8
0
  6
CONTINUOUS
 10
-95.400001999999986
 20
13.800000000000001
 30
0.0
 11
-95.400001999999986
 21
13.699999999999999
 31
0.0
  0
LINE
  5
3D6
  8
0
  6
CONTINUOUS
 10
-94.900002000000001
 20
13.4
 30
0.0
 11
-95.0
 21
13.6
 31
0.0
  0
LINE
  5
3D7
  8
0
  6
CONTINUOUS
 10
-94.900002000000001
 20
13.5
 30
0.0
 11
-94.900002000000001
 21
13.5
 31
0.0
  0
LINE
  5
3D8
  8
0
  6
CONTINUOUS
 10
-94.800003000000004
 20
13.6
 30
0.0
 11
-94.699996999999996
 21
13.4
 31
0.0
  0
LINE
  5
3D9
  8
0
  6
CONTINUOUS
 10
-100.400002
 20
24.799999
 30
0.0
 11
-100.400002
 21
25.200001
 31
0.0
  0
LINE
  5
3DA
  8
0
  6
CONTINUOUS
 10
-99.400002000000001
 20
29.0
 30
0.0
 11
-99.400002000000001
 21
29.100000000000001
 31
0.0
  0
LINE
  5
3DB
  8
0
  6
CONTINUOUS
 10
-99.599997999999999
 20
20.100000000000001
 30
0.0
 11
-99.599997999999999
 21
17.299999
 31
0.0
  0
LINE
  5
3DC
  8
0
  6
CONTINUOUS
 10
-99.199996999999996
 20
16.0
 30
0.0
 11
-99.199996999999996
 21
32.099997999999999
 31
0.0
  0
LINE
  5
3DD
  8
0
  6
CONTINUOUS
 10
-99.099998000000014
 20
16.0
 30
0.0
 11
-99.099998000000014
 21
15.800000000000001
 31
0.0
  0
LINE
  5
3DE
  8
0
  6
CONTINUOUS
 10
-99.099998000000014
 20
16.100000000000001
 30
0.0
 11
-99.099998000000014
 21
32.099997999999999
 31
0.0
  0
LINE
  5
3DF
  8
0
  6
CONTINUOUS
 10
-98.800003000000004
 20
13.4
 30
0.0
 11
-98.800003000000004
 21
13.6
 31
0.0
  0
LINE
  5
3E0
  8
0
  6
CONTINUOUS
 10
-98.099997999999985
 20
13.9
 30
0.0
 11
-98.099997999999985
 21
13.699999999999999
 31
0.0
  0
LINE
  5
3E1
  8
0
  6
CONTINUOUS
 10
-98.099997999999985
 20
13.9
 30
0.0
 11
-98.099997999999985
 21
13.9
 31
0.0
  0
LINE
  5
3E2
  8
0
  6
CONTINUOUS
 10
-98.0
 20
16.100000000000001
 30
0.0
 11
-98.0
 21
72.5
 31
0.0
  0
LINE
  5
3E3
  8
0
  6
CONTINUOUS
 10
-97.900002000000015
 20
16.0
 30
0.0
 11
-97.900002000000015
 21
72.5
 31
0.0
  0
LINE
  5
3E4
  8
0
  6
CONTINUOUS
 10
-97.900002000000015
 20
15.9
 30
0.0
 11
-97.900002000000015
 21
72.599997999999999
 31
0.0
  0
LINE
  5
3E5
  8
0
  6
CONTINUOUS
 10
-97.900002000000015
 20
72.599997999999999
 30
0.0
 11
-97.900002000000015
 21
15.9
 31
0.0
  0
LINE
  5
3E6
  8
0
  6
CONTINUOUS
 10
-99.400002000000001
 20
29.0
 30
0.0
 11
-99.500000000000014
 21
24.700001
 31
0.0
  0
LINE
  5
3E7
  8
0
  6
CONTINUOUS
 10
-100.900002
 20
22.399999999999999
 30
0.0
 11
-100.900002
 21
22.700001
 31
0.0
  0
LINE
  5
3E8
  8
0
  6
CONTINUOUS
 10
-100.400002
 20
24.0
 30
0.0
 11
-100.400002
 21
24.100000000000001
 31
0.0
  0
LINE
  5
3E9
  8
0
  6
CONTINUOUS
 10
-100.400002
 20
23.700001
 30
0.0
 11
-100.400002
 21
24.0
 31
0.0
  0
LINE
  5
3EA
  8
0
  6
CONTINUOUS
 10
-100.900002
 20
22.700001
 30
0.0
 11
-100.900002
 21
22.899999999999999
 31
0.0
  0
LINE
  5
3EB
  8
0
  6
CONTINUOUS
 10
-101.0
 20
20.399999999999999
 30
0.0
 11
-101.0
 21
20.399999999999999
 31
0.0
  0
LINE
  5
3EC
  8
0
  6
CONTINUOUS
 10
-100.699997
 20
27.600000000000001
 30
0.0
 11
-100.699997
 21
27.600000000000001
 31
0.0
  0
LINE
  5
3ED
  8
0
  6
CONTINUOUS
 10
-101.0
 20
20.299999
 30
0.0
 11
-101.0
 21
20.299999
 31
0.0
  0
LINE
  5
3EE
  8
0
  6
CONTINUOUS
 10
-101.5
 20
25.5
 30
0.0
 11
-101.5
 21
25.5
 31
0.0
  0
LINE
  5
3EF
  8
0
  6
CONTINUOUS
 10
-103.400002
 20
31.100000000000001
 30
0.0
 11
-103.400002
 21
31.100000000000001
 31
0.0
  0
LINE
  5
3F0
  8
0
  6
CONTINUOUS
 10
-102.900002
 20
31.399999999999999
 30
0.0
 11
-103.099998
 21
31.200001
 31
0.0
  0
LINE
  5
3F1
  8
0
  6
CONTINUOUS
 10
-103.400002
 20
31.100000000000001
 30
0.0
 11
-103.400002
 21
31.100000000000001
 31
0.0
  0
LINE
  5
3F2
  8
0
  6
CONTINUOUS
 10
-94.300003000000004
 20
14.6
 30
0.0
 11
-94.300003000000004
 21
14.6
 31
0.0
  0
LINE
  5
3F3
  8
0
  6
CONTINUOUS
 10
-95.599997999999985
 20
13.9
 30
0.0
 11
-95.599997999999985
 21
13.699999999999999
 31
0.0
  0
LINE
  5
3F4
  8
0
  6
CONTINUOUS
 10
-94.900002000000001
 20
13.6
 30
0.0
 11
-94.900002000000001
 21
13.5
 31
0.0
  0
LINE
  5
3F5
  8
0
  6
CONTINUOUS
 10
-94.900002000000001
 20
13.4
 30
0.0
 11
-94.900002000000001
 21
13.5
 31
0.0
  0
LINE
  5
3F6
  8
0
  6
CONTINUOUS
 10
-101.099998
 20
12.699999999999999
 30
0.0
 11
-101.099998
 21
12.699999999999999
 31
0.0
  0
LINE
  5
3F7
  8
0
  6
CONTINUOUS
 10
-100.400002
 20
23.700001
 30
0.0
 11
-100.400002
 21
23.700001
 31
0.0
  0
LINE
  5
3F8
  8
0
  6
CONTINUOUS
 10
-100.5
 20
23.600000000000001
 30
0.0
 11
-100.400002
 21
23.600000000000001
 31
0.0
  0
LINE
  5
3F9
  8
0
  6
CONTINUOUS
 10
-101.599998
 20
23.799999
 30
0.0
 11
-101.599998
 21
23.700001
 31
0.0
  0
LINE
  5
3FA
  8
0
  6
CONTINUOUS
 10
-100.699997
 20
27.600000000000001
 30
0.0
 11
-100.599998
 21
27.700001
 31
0.0
  0
LINE
  5
3FB
  8
0
  6
CONTINUOUS
 10
-101.699997
 20
24.200001
 30
0.0
 11
-101.599998
 21
24.299999
 31
0.0
  0
LINE
  5
3FC
  8
0
  6
CONTINUOUS
 10
-103.199997
 20
26.299999
 30
0.0
 11
-103.199997
 21
26.299999
 31
0.0
  0
LINE
  5
3FD
  8
0
  6
CONTINUOUS
 10
-104.599998
 20
28.0
 30
0.0
 11
-104.300003
 21
28.200001
 31
0.0
  0
LINE
  5
3FE
  8
0
  6
CONTINUOUS
 10
-104.099998
 20
28.399999999999999
 30
0.0
 11
-104.300003
 21
28.200001
 31
0.0
  0
LINE
  5
3FF
  8
0
  6
CONTINUOUS
 10
-102.900002
 20
31.399999999999999
 30
0.0
 11
-102.900002
 21
31.399999999999999
 31
0.0
  0
LINE
  5
400
  8
0
  6
CONTINUOUS
 10
-104.199997
 20
28.299999
 30
0.0
 11
-104.199997
 21
28.299999
 31
0.0
  0
LINE
  5
401
  8
0
  6
CONTINUOUS
 10
-103.300003
 20
31.100000000000001
 30
0.0
 11
-103.400002
 21
31.100000000000001
 31
0.0
  0
LINE
  5
402
  8
0
  6
CONTINUOUS
 10
-103.400002
 20
31.100000000000001
 30
0.0
 11
-103.300003
 21
31.100000000000001
 31
0.0
  0
LINE
  5
403
  8
0
  6
CONTINUOUS
 10
-102.900002
 20
31.399999999999999
 30
0.0
 11
-102.900002
 21
31.399999999999999
 31
0.0
  0
LINE
  5
404
  8
0
  6
CONTINUOUS
 10
-103.300003
 20
31.100000000000001
 30
0.0
 11
-103.300003
 21
31.100000000000001
 31
0.0
  0
LINE
  5
405
  8
0
  6
CONTINUOUS
 10
-94.300003000000004
 20
21.399999999999999
 30
0.0
 11
-94.300003000000004
 21
14.800000000000001
 31
0.0
  0
LINE
  5
406
  8
0
  6
CONTINUOUS
 10
-94.300003000000004
 20
21.399999999999999
 30
0.0
 11
-94.300003000000004
 21
14.800000000000001
 31
0.0
  0
LINE
  5
407
  8
0
  6
CONTINUOUS
 10
-94.199996999999996
 20
13.5
 30
0.0
 11
-94.199996999999996
 21
14.6
 31
0.0
  0
LINE
  5
408
  8
0
  6
CONTINUOUS
 10
-94.199996999999996
 20
21.600000000000001
 30
0.0
 11
-94.199996999999996
 21
73.599997999999999
 31
0.0
  0
LINE
  5
409
  8
0
  6
CONTINUOUS
 10
-94.199996999999996
 20
13.5
 30
0.0
 11
-94.199996999999996
 21
14.6
 31
0.0
  0
LINE
  5
40A
  8
0
  6
CONTINUOUS
 10
-94.199996999999996
 20
21.600000000000001
 30
0.0
 11
-94.199996999999996
 21
73.599997999999999
 31
0.0
  0
LINE
  5
40B
  8
0
  6
CONTINUOUS
 10
-94.199996999999996
 20
14.800000000000001
 30
0.0
 11
-94.199996999999996
 21
21.399999999999999
 31
0.0
  0
LINE
  5
40C
  8
0
  6
CONTINUOUS
 10
-99.0
 20
13.4
 30
0.0
 11
-99.0
 21
13.6
 31
0.0
  0
LINE
  5
40D
  8
0
  6
CONTINUOUS
 10
-98.800003000000004
 20
13.5
 30
0.0
 11
-98.800003000000004
 21
13.5
 31
0.0
  0
LINE
  5
40E
  8
0
  6
CONTINUOUS
 10
-98.800003000000004
 20
13.6
 30
0.0
 11
-98.800003000000004
 21
13.4
 31
0.0
  0
LINE
  5
40F
  8
0
  6
CONTINUOUS
 10
-98.300003000000004
 20
13.699999999999999
 30
0.0
 11
-98.300003000000004
 21
13.800000000000001
 31
0.0
  0
LINE
  5
410
  8
0
  6
CONTINUOUS
 10
-98.099997999999985
 20
13.9
 30
0.0
 11
-98.099997999999985
 21
13.9
 31
0.0
  0
LINE
  5
411
  8
0
  6
CONTINUOUS
 10
-98.099997999999985
 20
13.800000000000001
 30
0.0
 11
-98.099997999999985
 21
13.699999999999999
 31
0.0
  0
LINE
  5
412
  8
0
  6
CONTINUOUS
 10
-101.0
 20
20.299999
 30
0.0
 11
-101.0
 21
20.399999999999999
 31
0.0
  0
LINE
  5
413
  8
0
  6
CONTINUOUS
 10
-101.5
 20
25.5
 30
0.0
 11
-101.599998
 21
25.5
 31
0.0
  0
LINE
  5
414
  8
0
  6
CONTINUOUS
 10
-104.300003
 20
23.700001
 30
0.0
 11
-104.300003
 21
23.700001
 31
0.0
  0
LINE
  5
415
  8
0
  6
CONTINUOUS
 10
-103.199997
 20
26.299999
 30
0.0
 11
-103.199997
 21
26.299999
 31
0.0
  0
LINE
  5
416
  8
0
  6
CONTINUOUS
 10
-99.400002000000001
 20
29.100000000000001
 30
0.0
 11
-99.400002000000001
 21
29.100000000000001
 31
0.0
  0
LINE
  5
417
  8
0
  6
CONTINUOUS
 10
-94.199996999999996
 20
73.599997999999999
 30
0.0
 11
-94.199996999999996
 21
73.599997999999999
 31
0.0
  0
LINE
  5
418
  8
0
  6
CONTINUOUS
 10
-94.300003000000004
 20
21.600000000000001
 30
0.0
 11
-94.300003000000004
 21
21.600000000000001
 31
0.0
  0
LINE
  5
419
  8
0
  6
CONTINUOUS
 10
-101.099998
 20
12.699999999999999
 30
0.0
 11
-101.099998
 21
12.699999999999999
 31
0.0
  0
LINE
  5
41A
  8
0
  6
CONTINUOUS
 10
-100.400002
 20
22.700001
 30
0.0
 11
-100.199997
 21
23.0
 31
0.0
  0
LINE
  5
41B
  8
0
  6
CONTINUOUS
 10
-101.599998
 20
25.5
 30
0.0
 11
-101.599998
 21
25.399999999999999
 31
0.0
  0
LINE
  5
41C
  8
0
  6
CONTINUOUS
 10
-103.099998
 20
26.299999
 30
0.0
 11
-103.199997
 21
26.299999
 31
0.0
  0
LINE
  5
41D
  8
0
  6
CONTINUOUS
 10
-99.400002000000001
 20
29.100000000000001
 30
0.0
 11
-99.400002000000001
 21
29.100000000000001
 31
0.0
  0
LINE
  5
41E
  8
0
  6
CONTINUOUS
 10
-101.199997
 20
12.6
 30
0.0
 11
-101.099998
 21
12.699999999999999
 31
0.0
  0
LINE
  5
41F
  8
0
  6
CONTINUOUS
 10
-106.900002
 20
16.0
 30
0.0
 11
-106.800003
 21
16.100000000000001
 31
0.0
  0
LINE
  5
420
  8
0
  6
CONTINUOUS
 10
-102.400002
 20
23.299999
 30
0.0
 11
-102.400002
 21
23.299999
 31
0.0
  0
LINE
  5
421
  8
0
  6
CONTINUOUS
 10
-101.599998
 20
25.399999999999999
 30
0.0
 11
-101.599998
 21
25.399999999999999
 31
0.0
  0
LINE
  5
422
  8
0
  6
CONTINUOUS
 10
-100.400002
 20
23.700001
 30
0.0
 11
-100.400002
 21
23.700001
 31
0.0
  0
LINE
  5
423
  8
0
  6
CONTINUOUS
 10
-99.199996999999996
 20
16.0
 30
0.0
 11
-99.099998000000014
 21
16.100000000000001
 31
0.0
  0
LINE
  5
424
  8
0
  6
CONTINUOUS
 10
-103.599998
 20
57.900002000000001
 30
0.0
 11
-101.199997
 21
57.900002000000001
 31
0.0
  0
LINE
  5
425
  8
0
  6
CONTINUOUS
 10
-101.199997
 20
58.700001
 30
0.0
 11
-103.599998
 21
58.700001
 31
0.0
  0
LINE
  5
426
  8
0
  6
CONTINUOUS
 10
-103.599998
 20
59.700001
 30
0.0
 11
-101.199997
 21
59.700001
 31
0.0
  0
LINE
  5
427
  8
0
  6
CONTINUOUS
 10
-101.199997
 20
60.5
 30
0.0
 11
-103.599998
 21
60.5
 31
0.0
  0
LINE
  5
428
  8
0
  6
CONTINUOUS
 10
-101.5
 20
12.4
 30
0.0
 11
-101.5
 21
12.4
 31
0.0
  0
LINE
  5
429
  8
0
  6
CONTINUOUS
 10
-103.599998
 20
61.5
 30
0.0
 11
-101.199997
 21
61.5
 31
0.0
  0
LINE
  5
42A
  8
0
  6
CONTINUOUS
 10
-101.199997
 20
62.299999
 30
0.0
 11
-103.599998
 21
62.299999
 31
0.0
  0
LINE
  5
42B
  8
0
  6
CONTINUOUS
 10
-101.400002
 20
12.5
 30
0.0
 11
-101.300003
 21
12.5
 31
0.0
  0
LINE
  5
42C
  8
0
  6
CONTINUOUS
 10
-101.400002
 20
12.5
 30
0.0
 11
-101.400002
 21
12.5
 31
0.0
  0
LINE
  5
42D
  8
0
  6
CONTINUOUS
 10
-103.300003
 20
12.5
 30
0.0
 11
-103.300003
 21
12.5
 31
0.0
  0
LINE
  5
42E
  8
0
  6
CONTINUOUS
 10
-98.099997999999985
 20
72.599997999999999
 30
0.0
 11
-106.699997
 21
72.599997999999999
 31
0.0
  0
LINE
  5
42F
  8
0
  6
CONTINUOUS
 10
-98.099997999999985
 20
72.699996999999996
 30
0.0
 11
-106.699997
 21
72.699996999999996
 31
0.0
  0
LINE
  5
430
  8
0
  6
CONTINUOUS
 10
-98.0
 20
72.699996999999996
 30
0.0
 11
-106.800003
 21
72.699996999999996
 31
0.0
  0
LINE
  5
431
  8
0
  6
CONTINUOUS
 10
-98.0
 20
72.699996999999996
 30
0.0
 11
-106.800003
 21
72.699996999999996
 31
0.0
  0
LINE
  5
432
  8
0
  6
CONTINUOUS
 10
-94.300003000000004
 20
73.699996999999996
 30
0.0
 11
-110.5
 21
73.699996999999996
 31
0.0
  0
LINE
  5
433
  8
0
  6
CONTINUOUS
 10
-110.5
 20
73.699996999999996
 30
0.0
 11
-94.300003000000004
 21
73.699996999999996
 31
0.0
  0
ARC
  5
434
  8
0
  6
CONTINUOUS
 10
-102.5
 20
32.099997999999999
 30
0.0
 40
0.7104729999999999
 50
198.300003
 51
267.10000600000001
  0
ARC
  5
435
  8
0
  6
CONTINUOUS
 10
-102.400002
 20
34.5
 30
0.0
 40
0.4500090000000001
 50
281.5
 51
78.5
  0
ARC
  5
436
  8
0
  6
CONTINUOUS
 10
-102.400002
 20
34.5
 30
0.0
 40
0.449993
 50
101.5
 51
258.5
  0
ARC
  5
437
  8
0
  6
CONTINUOUS
 10
-102.400002
 20
34.5
 30
0.0
 40
0.420019
 50
282.39999399999999
 51
77.599997999999999
  0
ARC
  5
438
  8
0
  6
CONTINUOUS
 10
-102.400002
 20
34.5
 30
0.0
 40
0.4199790000000001
 50
102.400002
 51
257.60000600000001
  0
ARC
  5
439
  8
0
  6
CONTINUOUS
 10
-102.5
 20
32.099997999999999
 30
0.0
 40
0.4
 50
202.800003
 51
340.89999399999999
  0
ARC
  5
43A
  8
0
  6
CONTINUOUS
 10
-106.699997
 20
72.5
 30
0.0
 40
0.2
 50
90.0
 51
180.0
  0
ARC
  5
43B
  8
0
  6
CONTINUOUS
 10
-106.699997
 20
72.5
 30
0.0
 40
0.1
 50
90.0
 51
180.0
  0
ARC
  5
43C
  8
0
  6
CONTINUOUS
 10
-102.300003
 20
36.0
 30
0.0
 40
4.5999999999999988
 50
272.39999399999999
 51
281.29998799999998
  0
ARC
  5
43D
  8
0
  6
CONTINUOUS
 10
-102.400002
 20
32.099997999999999
 30
0.0
 40
3.319999999999999
 50
0.0
 51
180.0
  0
ARC
  5
43E
  8
0
  6
CONTINUOUS
 10
-102.400002
 20
32.099997999999999
 30
0.0
 40
3.2200000000000002
 50
0.0
 51
180.0
  0
ARC
  5
43F
  8
0
  6
CONTINUOUS
 10
-102.400002
 20
29.100000000000001
 30
0.0
 40
3.0
 50
135.5
 51
179.5
  0
ARC
  5
440
  8
0
  6
CONTINUOUS
 10
-102.400002
 20
29.100000000000001
 30
0.0
 40
3.0
 50
0.5
 51
44.5
  0
ARC
  5
441
  8
0
  6
CONTINUOUS
 10
-102.400002
 20
29.100000000000001
 30
0.0
 40
2.951111
 50
76.0
 51
122.0
  0
ARC
  5
442
  8
0
  6
CONTINUOUS
 10
-102.400002
 20
29.100000000000001
 30
0.0
 40
2.9126979999999989
 50
122.400002
 51
134.800003
  0
ARC
  5
443
  8
0
  6
CONTINUOUS
 10
-102.400002
 20
29.100000000000001
 30
0.0
 40
2.9126979999999989
 50
45.200000999999993
 51
74.5
  0
ARC
  5
444
  8
0
  6
CONTINUOUS
 10
-102.400002
 20
29.100000000000001
 30
0.0
 40
2.8934969999999991
 50
105.099998
 51
122.400002
  0
CIRCLE
  5
445
  8
0
  6
CONTINUOUS
 10
-102.400002
 20
34.5
 30
0.0
 40
0.525709
  0
CIRCLE
  5
446
  8
0
  6
CONTINUOUS
 10
-102.400002
 20
34.5
 30
0.0
 40
0.4748370000000001
  0
CIRCLE
  5
447
  8
0
  6
CONTINUOUS
 10
-102.400002
 20
34.5
 30
0.0
 40
0.4696
  0
ARC
  5
448
  8
0
  6
CONTINUOUS
 10
-102.400002
 20
34.5
 30
0.0
 40
0.25
 50
74.099997999999999
 51
105.900002
  0
ARC
  5
449
  8
0
  6
CONTINUOUS
 10
-102.400002
 20
34.5
 30
0.0
 40
0.25
 50
254.10000600000001
 51
285.89999399999999
  0
ARC
  5
44A
  8
0
  6
CONTINUOUS
 10
-101.5
 20
31.600000000000001
 30
0.0
 40
0.139068
 50
281.29998799999998
 51
65.300003000000004
  0
ARC
  5
44B
  8
0
  6
CONTINUOUS
 10
-98.099997999999985
 20
72.5
 30
0.0
 40
0.2
 50
0.0
 51
90.0
  0
ARC
  5
44C
  8
0
  6
CONTINUOUS
 10
-98.099997999999985
 20
72.5
 30
0.0
 40
0.1
 50
0.0
 51
90.0
  0
LINE
  5
44D
  8
0
  6
CONTINUOUS
 10
-100.900002
 20
3.2999999999999989
 30
0.0
 11
-100.900002
 21
11.9
 31
0.0
  0
LINE
  5
44E
  8
0
  6
CONTINUOUS
 10
-100.900002
 20
2.399999999999999
 30
0.0
 11
-100.900002
 21
-0.1
 31
0.0
  0
LINE
  5
44F
  8
0
  6
CONTINUOUS
 10
-100.199997
 20
-0.1
 30
0.0
 11
-100.199997
 21
11.9
 31
0.0
  0
LINE
  5
450
  8
0
  6
CONTINUOUS
 10
-101.800003
 20
2.6000000000000001
 30
0.0
 11
-101.0
 21
2.6000000000000001
 31
0.0
  0
LINE
  5
451
  8
0
  6
CONTINUOUS
 10
-106.0
 20
2.6000000000000001
 30
0.0
 11
-103.0
 21
2.6000000000000001
 31
0.0
  0
LINE
  5
452
  8
0
  6
CONTINUOUS
 10
-101.800003
 20
3.2999999999999989
 30
0.0
 11
-101.0
 21
3.2999999999999989
 31
0.0
  0
LINE
  5
453
  8
0
  6
CONTINUOUS
 10
-106.0
 20
3.2999999999999989
 30
0.0
 11
-103.0
 21
3.2999999999999989
 31
0.0
  0
LINE
  5
454
  8
0
  6
CONTINUOUS
 10
-106.199997
 20
2.399999999999999
 30
0.0
 11
-106.199997
 21
-0.1
 31
0.0
  0
LINE
  5
455
  8
0
  6
CONTINUOUS
 10
-106.900002
 20
11.9
 30
0.0
 11
-106.900002
 21
-0.1
 31
0.0
  0
LINE
  5
456
  8
0
  6
CONTINUOUS
 10
-106.199997
 20
11.9
 30
0.0
 11
-106.199997
 21
2.6000000000000001
 31
0.0
  0
ARC
  5
457
  8
0
  6
CONTINUOUS
 10
-100.5
 20
-0.1
 30
0.0
 40
0.35
 50
180.0
 51
0.0
  0
ARC
  5
458
  8
0
  6
CONTINUOUS
 10
-101.0
 20
2.399999999999999
 30
0.0
 40
0.15
 50
0.0
 51
90.0
  0
ARC
  5
459
  8
0
  6
CONTINUOUS
 10
-101.0
 20
2.399999999999999
 30
0.0
 40
0.85
 50
0.0
 51
90.0
  0
ARC
  5
45A
  8
0
  6
CONTINUOUS
 10
-106.0
 20
2.399999999999999
 30
0.0
 40
0.15
 50
90.0
 51
180.0
  0
ARC
  5
45B
  8
0
  6
CONTINUOUS
 10
-106.0
 20
2.399999999999999
 30
0.0
 40
0.85
 50
90.0
 51
180.0
  0
ARC
  5
45C
  8
0
  6
CONTINUOUS
 10
-106.5
 20
-0.1
 30
0.0
 40
0.35
 50
180.0
 51
0.0
  0
LINE
  5
45D
  8
0
  6
CONTINUOUS
 10
-109.099998
 20
-4.0
 30
0.0
 11
-109.099998
 21
-36.400002000000001
 31
0.0
  0
ARC
  5
45E
  8
0
  6
CONTINUOUS
 10
-103.699997
 20
-4.0
 30
0.0
 40
5.3750010000000001
 50
0.0
 51
48.900001999999994
  0
ARC
  5
45F
  8
0
  6
CONTINUOUS
 10
-103.699997
 20
-4.0
 30
0.0
 40
5.375
 50
58.200001
 51
69.699996999999996
  0
ARC
  5
460
  8
0
  6
CONTINUOUS
 10
-103.699997
 20
-4.0
 30
0.0
 40
5.375
 50
82.099997999999999
 51
117.300003
  0
ARC
  5
461
  8
0
  6
CONTINUOUS
 10
-103.699997
 20
-4.0
 30
0.0
 40
5.375
 50
126.099998
 51
180.0
  0
LINE
  5
462
  8
0
  6
CONTINUOUS
 10
-98.300003000000004
 20
-36.400002000000001
 30
0.0
 11
-98.300003000000004
 21
-4.0
 31
0.0
  0
LINE
  5
463
  8
0
  6
CONTINUOUS
 10
-108.900002
 20
-4.0
 30
0.0
 11
-108.900002
 21
-36.400002000000001
 31
0.0
  0
ARC
  5
464
  8
0
  6
CONTINUOUS
 10
-103.599998
 20
-4.0
 30
0.0
 40
5.375
 50
83.499999999999986
 51
118.900002
  0
ARC
  5
465
  8
0
  6
CONTINUOUS
 10
-103.599998
 20
-4.0
 30
0.0
 40
5.375
 50
127.800003
 51
180.0
  0
LINE
  5
466
  8
0
  6
CONTINUOUS
 10
-110.300003
 20
-4.0
 30
0.0
 11
-110.300003
 21
-36.400002000000001
 31
0.0
  0
ARC
  5
467
  8
0
  6
CONTINUOUS
 10
-103.699997
 20
-4.0
 30
0.0
 40
6.625
 50
0.0
 51
57.700001
  0
ARC
  5
468
  8
0
  6
CONTINUOUS
 10
-103.699997
 20
-4.0
 30
0.0
 40
6.6250159999999996
 50
64.699996999999996
 51
73.699996999999996
  0
ARC
  5
469
  8
0
  6
CONTINUOUS
 10
-103.699997
 20
-4.0
 30
0.0
 40
6.6247339999999992
 50
83.599997999999999
 51
84.099997999999985
  0
ARC
  5
46A
  8
0
  6
CONTINUOUS
 10
-103.699997
 20
-4.0
 30
0.0
 40
6.625
 50
95.900001999999986
 51
111.800003
  0
ARC
  5
46B
  8
0
  6
CONTINUOUS
 10
-103.699997
 20
-4.0
 30
0.0
 40
6.625
 50
118.5
 51
180.0
  0
LINE
  5
46C
  8
0
  6
CONTINUOUS
 10
-97.099997999999999
 20
-36.400002000000001
 30
0.0
 11
-97.099997999999999
 21
-4.0
 31
0.0
  0
ARC
  5
46D
  8
0
  6
CONTINUOUS
 10
-103.599998
 20
-4.0
 30
0.0
 40
6.625
 50
0.0
 51
59.099998000000006
  0
ARC
  5
46E
  8
0
  6
CONTINUOUS
 10
-103.599998
 20
-4.0
 30
0.0
 40
6.6249899999999986
 50
65.900002000000001
 51
74.800003000000004
  0
LINE
  5
46F
  8
0
  6
CONTINUOUS
 10
-96.900002000000001
 20
-36.400002000000001
 30
0.0
 11
-96.900002000000001
 21
-4.0
 31
0.0
  0
ARC
  5
470
  8
0
  6
CONTINUOUS
 10
-102.599998
 20
-36.400002000000001
 30
0.0
 40
5.6459950000000001
 50
329.5
 51
0.0
  0
LINE
  5
471
  8
0
  6
CONTINUOUS
 10
-106.900002
 20
0.2
 30
0.0
 11
-106.900002
 21
-36.400002000000001
 31
0.0
  0
LINE
  5
472
  8
0
  6
CONTINUOUS
 10
-106.900002
 20
12.4
 30
0.0
 11
-106.900002
 21
1.8
 31
0.0
  0
LINE
  5
473
  8
0
  6
CONTINUOUS
 10
-108.099998
 20
-1.1999999999999991
 30
0.0
 11
-108.099998
 21
-36.400002000000001
 31
0.0
  0
LINE
  5
474
  8
0
  6
CONTINUOUS
 10
-108.099998
 20
12.4
 30
0.0
 11
-108.099998
 21
0.9
 31
0.0
  0
LINE
  5
475
  8
0
  6
CONTINUOUS
 10
-102.900002
 20
-36.599997999999999
 30
0.0
 11
-103.0
 21
12.5
 31
0.0
  0
LINE
  5
476
  8
0
  6
CONTINUOUS
 10
-101.800003
 20
-38.0
 30
0.0
 11
-101.800003
 21
12.5
 31
0.0
  0
LINE
  5
477
  8
0
  6
CONTINUOUS
 10
-106.099998
 20
12.1
 30
0.0
 11
-106.099998
 21
12.199999999999999
 31
0.0
  0
LINE
  5
478
  8
0
  6
CONTINUOUS
 10
-106.900002
 20
12.199999999999999
 30
0.0
 11
-106.099998
 21
12.199999999999999
 31
0.0
  0
ARC
  5
479
  8
0
  6
CONTINUOUS
 10
-106.900002
 20
12.199999999999999
 30
0.0
 40
0.03
 50
90.0
 51
99.599997999999999
  0
ARC
  5
47A
  8
0
  6
CONTINUOUS
 10
-106.099998
 20
12.199999999999999
 30
0.0
 40
0.03
 50
0.0
 51
90.0
  0
LINE
  5
47B
  8
0
  6
CONTINUOUS
 10
-106.099998
 20
12.199999999999999
 30
0.0
 11
-106.900002
 21
12.199999999999999
 31
0.0
  0
LINE
  5
47C
  8
0
  6
CONTINUOUS
 10
-106.300003
 20
12.800000000000001
 30
0.0
 11
-106.400002
 21
12.9
 31
0.0
  0
LINE
  5
47D
  8
0
  6
CONTINUOUS
 10
-106.699997
 20
12.9
 30
0.0
 11
-106.599998
 21
12.9
 31
0.0
  0
LINE
  5
47E
  8
0
  6
CONTINUOUS
 10
-106.400002
 20
12.9
 30
0.0
 11
-106.400002
 21
12.9
 31
0.0
  0
LINE
  5
47F
  8
0
  6
CONTINUOUS
 10
-106.599998
 20
12.9
 30
0.0
 11
-106.599998
 21
12.9
 31
0.0
  0
LINE
  5
480
  8
0
  6
CONTINUOUS
 10
-106.400002
 20
12.9
 30
0.0
 11
-106.300003
 21
12.9
 31
0.0
  0
LINE
  5
481
  8
0
  6
CONTINUOUS
 10
-106.599998
 20
12.9
 30
0.0
 11
-106.599998
 21
12.9
 31
0.0
  0
LINE
  5
482
  8
0
  6
CONTINUOUS
 10
-106.400002
 20
12.9
 30
0.0
 11
-106.300003
 21
12.9
 31
0.0
  0
LINE
  5
483
  8
0
  6
CONTINUOUS
 10
-106.699997
 20
12.800000000000001
 30
0.0
 11
-106.599998
 21
12.800000000000001
 31
0.0
  0
LINE
  5
484
  8
0
  6
CONTINUOUS
 10
-106.400002
 20
12.699999999999999
 30
0.0
 11
-106.400002
 21
12.800000000000001
 31
0.0
  0
LINE
  5
485
  8
0
  6
CONTINUOUS
 10
-106.599998
 20
12.800000000000001
 30
0.0
 11
-106.599998
 21
12.800000000000001
 31
0.0
  0
LINE
  5
486
  8
0
  6
CONTINUOUS
 10
-106.400002
 20
12.800000000000001
 30
0.0
 11
-106.300003
 21
12.800000000000001
 31
0.0
  0
LINE
  5
487
  8
0
  6
CONTINUOUS
 10
-106.599998
 20
12.800000000000001
 30
0.0
 11
-106.699997
 21
12.800000000000001
 31
0.0
  0
LINE
  5
488
  8
0
  6
CONTINUOUS
 10
-106.699997
 20
12.199999999999999
 30
0.0
 11
-106.699997
 21
12.199999999999999
 31
0.0
  0
LINE
  5
489
  8
0
  6
CONTINUOUS
 10
-106.400002
 20
12.199999999999999
 30
0.0
 11
-106.400002
 21
12.199999999999999
 31
0.0
  0
LINE
  5
48A
  8
0
  6
CONTINUOUS
 10
-106.599998
 20
12.9
 30
0.0
 11
-106.400002
 21
12.9
 31
0.0
  0
LINE
  5
48B
  8
0
  6
CONTINUOUS
 10
-106.5
 20
12.9
 30
0.0
 11
-106.599998
 21
12.9
 31
0.0
  0
ARC
  5
48C
  8
0
  6
CONTINUOUS
 10
-106.300003
 20
12.9
 30
0.0
 40
0.001114
 50
276.5
 51
41.200001
  0
ARC
  5
48D
  8
0
  6
CONTINUOUS
 10
-106.699997
 20
12.9
 30
0.0
 40
0.003788
 50
109.199997
 51
165.800003
  0
ARC
  5
48E
  8
0
  6
CONTINUOUS
 10
-106.300003
 20
12.800000000000001
 30
0.0
 40
0.003592
 50
13.1
 51
69.300003000000004
  0
LINE
  5
48F
  8
0
  6
CONTINUOUS
 10
-106.699997
 20
12.9
 30
0.0
 11
-106.699997
 21
12.9
 31
0.0
  0
LINE
  5
490
  8
0
  6
CONTINUOUS
 10
-106.300003
 20
12.800000000000001
 30
0.0
 11
-106.300003
 21
12.800000000000001
 31
0.0
  0
LINE
  5
491
  8
0
  6
CONTINUOUS
 10
-106.699997
 20
12.800000000000001
 30
0.0
 11
-106.699997
 21
12.699999999999999
 31
0.0
  0
ARC
  5
492
  8
0
  6
CONTINUOUS
 10
-106.699997
 20
12.800000000000001
 30
0.0
 40
0.002967
 50
116.900002
 51
170.5
  0
ARC
  5
493
  8
0
  6
CONTINUOUS
 10
-106.699997
 20
12.9
 30
0.0
 40
0.003623
 50
193.300003
 51
249.5
  0
ARC
  5
494
  8
0
  6
CONTINUOUS
 10
-106.300003
 20
12.800000000000001
 30
0.0
 40
0.003639
 50
290.70001200000002
 51
346.89999399999999
  0
LINE
  5
495
  8
0
  6
CONTINUOUS
 10
-106.699997
 20
12.699999999999999
 30
0.0
 11
-106.699997
 21
12.699999999999999
 31
0.0
  0
LINE
  5
496
  8
0
  6
CONTINUOUS
 10
-106.800003
 20
12.699999999999999
 30
0.0
 11
-106.099998
 21
12.699999999999999
 31
0.0
  0
LINE
  5
497
  8
0
  6
CONTINUOUS
 10
-106.900002
 20
12.4
 30
0.0
 11
-106.900002
 21
12.4
 31
0.0
  0
ARC
  5
498
  8
0
  6
CONTINUOUS
 10
-106.5
 20
12.800000000000001
 30
0.0
 40
0.106143
 50
256.39999399999999
 51
283.60000600000001
  0
LINE
  5
499
  8
0
  6
CONTINUOUS
 10
-106.5
 20
12.4
 30
0.0
 11
-106.5
 21
12.699999999999999
 31
0.0
  0
LINE
  5
49A
  8
0
  6
CONTINUOUS
 10
-106.5
 20
12.4
 30
0.0
 11
-106.5
 21
12.699999999999999
 31
0.0
  0
LINE
  5
49B
  8
0
  6
CONTINUOUS
 10
-106.099998
 20
12.4
 30
0.0
 11
-106.099998
 21
12.699999999999999
 31
0.0
  0
LINE
  5
49C
  8
0
  6
CONTINUOUS
 10
-106.099998
 20
12.4
 30
0.0
 11
-106.099998
 21
12.699999999999999
 31
0.0
  0
LINE
  5
49D
  8
0
  6
CONTINUOUS
 10
-106.900002
 20
12.4
 30
0.0
 11
-106.099998
 21
12.4
 31
0.0
  0
ARC
  5
49E
  8
0
  6
CONTINUOUS
 10
-106.099998
 20
12.300000000000001
 30
0.0
 40
0.02
 50
0.0
 51
90.0
  0
LINE
  5
49F
  8
0
  6
CONTINUOUS
 10
-106.099998
 20
12.300000000000001
 30
0.0
 11
-106.900002
 21
12.300000000000001
 31
0.0
  0
LINE
  5
4A0
  8
0
  6
CONTINUOUS
 10
-106.099998
 20
12.199999999999999
 30
0.0
 11
-106.099998
 21
12.300000000000001
 31
0.0
  0
LINE
  5
4A1
  8
0
  6
CONTINUOUS
 10
-106.900002
 20
12.199999999999999
 30
0.0
 11
-106.099998
 21
12.199999999999999
 31
0.0
  0
ARC
  5
4A2
  8
0
  6
CONTINUOUS
 10
-106.099998
 20
12.199999999999999
 30
0.0
 40
0.02
 50
270.0
 51
0.0
  0
LINE
  5
4A3
  8
0
  6
CONTINUOUS
 10
-106.900002
 20
12.199999999999999
 30
0.0
 11
-106.099998
 21
12.199999999999999
 31
0.0
  0
LINE
  5
4A4
  8
0
  6
CONTINUOUS
 10
-106.699997
 20
12.199999999999999
 30
0.0
 11
-106.699997
 21
12.199999999999999
 31
0.0
  0
ARC
  5
4A5
  8
0
  6
CONTINUOUS
 10
-106.699997
 20
12.199999999999999
 30
0.0
 40
0.003563
 50
193.0
 51
249.10000600000001
  0
LINE
  5
4A6
  8
0
  6
CONTINUOUS
 10
-100.199997
 20
12.1
 30
0.0
 11
-100.199997
 21
12.199999999999999
 31
0.0
  0
LINE
  5
4A7
  8
0
  6
CONTINUOUS
 10
-101.0
 20
12.199999999999999
 30
0.0
 11
-100.199997
 21
12.199999999999999
 31
0.0
  0
ARC
  5
4A8
  8
0
  6
CONTINUOUS
 10
-101.0
 20
12.199999999999999
 30
0.0
 40
0.03
 50
90.0
 51
180.0
  0
ARC
  5
4A9
  8
0
  6
CONTINUOUS
 10
-100.199997
 20
12.199999999999999
 30
0.0
 40
0.03
 50
0.0
 51
90.0
  0
LINE
  5
4AA
  8
0
  6
CONTINUOUS
 10
-100.199997
 20
12.199999999999999
 30
0.0
 11
-101.0
 21
12.199999999999999
 31
0.0
  0
LINE
  5
4AB
  8
0
  6
CONTINUOUS
 10
-100.400002
 20
12.800000000000001
 30
0.0
 11
-100.5
 21
12.9
 31
0.0
  0
LINE
  5
4AC
  8
0
  6
CONTINUOUS
 10
-100.800003
 20
12.9
 30
0.0
 11
-100.699997
 21
12.9
 31
0.0
  0
LINE
  5
4AD
  8
0
  6
CONTINUOUS
 10
-100.5
 20
12.9
 30
0.0
 11
-100.5
 21
12.9
 31
0.0
  0
LINE
  5
4AE
  8
0
  6
CONTINUOUS
 10
-100.699997
 20
12.9
 30
0.0
 11
-100.699997
 21
12.9
 31
0.0
  0
LINE
  5
4AF
  8
0
  6
CONTINUOUS
 10
-100.5
 20
12.9
 30
0.0
 11
-100.400002
 21
12.9
 31
0.0
  0
LINE
  5
4B0
  8
0
  6
CONTINUOUS
 10
-100.699997
 20
12.9
 30
0.0
 11
-100.699997
 21
12.9
 31
0.0
  0
LINE
  5
4B1
  8
0
  6
CONTINUOUS
 10
-100.400002
 20
12.9
 30
0.0
 11
-100.400002
 21
12.9
 31
0.0
  0
LINE
  5
4B2
  8
0
  6
CONTINUOUS
 10
-100.800003
 20
12.800000000000001
 30
0.0
 11
-100.699997
 21
12.800000000000001
 31
0.0
  0
LINE
  5
4B3
  8
0
  6
CONTINUOUS
 10
-100.5
 20
12.699999999999999
 30
0.0
 11
-100.5
 21
12.800000000000001
 31
0.0
  0
LINE
  5
4B4
  8
0
  6
CONTINUOUS
 10
-100.699997
 20
12.800000000000001
 30
0.0
 11
-100.699997
 21
12.800000000000001
 31
0.0
  0
LINE
  5
4B5
  8
0
  6
CONTINUOUS
 10
-100.5
 20
12.800000000000001
 30
0.0
 11
-100.400002
 21
12.800000000000001
 31
0.0
  0
LINE
  5
4B6
  8
0
  6
CONTINUOUS
 10
-100.699997
 20
12.800000000000001
 30
0.0
 11
-100.800003
 21
12.800000000000001
 31
0.0
  0
LINE
  5
4B7
  8
0
  6
CONTINUOUS
 10
-100.800003
 20
12.199999999999999
 30
0.0
 11
-100.800003
 21
12.199999999999999
 31
0.0
  0
LINE
  5
4B8
  8
0
  6
CONTINUOUS
 10
-100.400002
 20
12.199999999999999
 30
0.0
 11
-100.5
 21
12.199999999999999
 31
0.0
  0
LINE
  5
4B9
  8
0
  6
CONTINUOUS
 10
-100.699997
 20
12.9
 30
0.0
 11
-100.400002
 21
12.9
 31
0.0
  0
LINE
  5
4BA
  8
0
  6
CONTINUOUS
 10
-100.599998
 20
12.9
 30
0.0
 11
-100.699997
 21
12.9
 31
0.0
  0
ARC
  5
4BB
  8
0
  6
CONTINUOUS
 10
-100.400002
 20
12.9
 30
0.0
 40
0.001114
 50
276.5
 51
41.200001
  0
ARC
  5
4BC
  8
0
  6
CONTINUOUS
 10
-100.800003
 20
12.9
 30
0.0
 40
0.003788
 50
109.199997
 51
165.800003
  0
ARC
  5
4BD
  8
0
  6
CONTINUOUS
 10
-100.400002
 20
12.800000000000001
 30
0.0
 40
0.003592
 50
13.1
 51
69.300003000000004
  0
LINE
  5
4BE
  8
0
  6
CONTINUOUS
 10
-100.800003
 20
12.9
 30
0.0
 11
-100.800003
 21
12.9
 31
0.0
  0
LINE
  5
4BF
  8
0
  6
CONTINUOUS
 10
-100.400002
 20
12.800000000000001
 30
0.0
 11
-100.400002
 21
12.800000000000001
 31
0.0
  0
LINE
  5
4C0
  8
0
  6
CONTINUOUS
 10
-100.800003
 20
12.800000000000001
 30
0.0
 11
-100.800003
 21
12.699999999999999
 31
0.0
  0
ARC
  5
4C1
  8
0
  6
CONTINUOUS
 10
-100.800003
 20
12.800000000000001
 30
0.0
 40
0.002967
 50
116.900002
 51
170.5
  0
ARC
  5
4C2
  8
0
  6
CONTINUOUS
 10
-100.800003
 20
12.9
 30
0.0
 40
0.003623
 50
193.300003
 51
249.5
  0
ARC
  5
4C3
  8
0
  6
CONTINUOUS
 10
-100.400002
 20
12.800000000000001
 30
0.0
 40
0.003639
 50
290.70001200000002
 51
346.89999399999999
  0
LINE
  5
4C4
  8
0
  6
CONTINUOUS
 10
-100.800003
 20
12.699999999999999
 30
0.0
 11
-100.800003
 21
12.699999999999999
 31
0.0
  0
LINE
  5
4C5
  8
0
  6
CONTINUOUS
 10
-101.0
 20
12.699999999999999
 30
0.0
 11
-100.199997
 21
12.699999999999999
 31
0.0
  0
ARC
  5
4C6
  8
0
  6
CONTINUOUS
 10
-100.599998
 20
12.800000000000001
 30
0.0
 40
0.106143
 50
256.39999399999999
 51
283.60000600000001
  0
LINE
  5
4C7
  8
0
  6
CONTINUOUS
 10
-100.599998
 20
12.4
 30
0.0
 11
-100.599998
 21
12.699999999999999
 31
0.0
  0
LINE
  5
4C8
  8
0
  6
CONTINUOUS
 10
-100.599998
 20
12.4
 30
0.0
 11
-100.599998
 21
12.699999999999999
 31
0.0
  0
LINE
  5
4C9
  8
0
  6
CONTINUOUS
 10
-100.199997
 20
12.4
 30
0.0
 11
-100.199997
 21
12.699999999999999
 31
0.0
  0
LINE
  5
4CA
  8
0
  6
CONTINUOUS
 10
-100.199997
 20
12.4
 30
0.0
 11
-100.199997
 21
12.699999999999999
 31
0.0
  0
ARC
  5
4CB
  8
0
  6
CONTINUOUS
 10
-100.199997
 20
12.300000000000001
 30
0.0
 40
0.02
 50
0.0
 51
90.0
  0
LINE
  5
4CC
  8
0
  6
CONTINUOUS
 10
-100.199997
 20
12.300000000000001
 30
0.0
 11
-101.0
 21
12.300000000000001
 31
0.0
  0
LINE
  5
4CD
  8
0
  6
CONTINUOUS
 10
-100.199997
 20
12.199999999999999
 30
0.0
 11
-100.199997
 21
12.300000000000001
 31
0.0
  0
LINE
  5
4CE
  8
0
  6
CONTINUOUS
 10
-101.0
 20
12.199999999999999
 30
0.0
 11
-100.199997
 21
12.199999999999999
 31
0.0
  0
ARC
  5
4CF
  8
0
  6
CONTINUOUS
 10
-100.199997
 20
12.199999999999999
 30
0.0
 40
0.02
 50
270.0
 51
0.0
  0
LINE
  5
4D0
  8
0
  6
CONTINUOUS
 10
-101.0
 20
12.199999999999999
 30
0.0
 11
-100.199997
 21
12.199999999999999
 31
0.0
  0
LINE
  5
4D1
  8
0
  6
CONTINUOUS
 10
-100.800003
 20
12.199999999999999
 30
0.0
 11
-100.800003
 21
12.199999999999999
 31
0.0
  0
ARC
  5
4D2
  8
0
  6
CONTINUOUS
 10
-100.800003
 20
12.199999999999999
 30
0.0
 40
0.003563
 50
193.0
 51
249.10000600000001
  0
LINE
  5
4D3
  8
0
  6
CONTINUOUS
 10
-101.0
 20
12.1
 30
0.0
 11
-101.0
 21
12.199999999999999
 31
0.0
  0
LINE
  5
4D4
  8
0
  6
CONTINUOUS
 10
-101.0
 20
12.699999999999999
 30
0.0
 11
-101.0
 21
12.699999999999999
 31
0.0
  0
LINE
  5
4D5
  8
0
  6
CONTINUOUS
 10
-101.0
 20
12.4
 30
0.0
 11
-101.0
 21
12.699999999999999
 31
0.0
  0
LINE
  5
4D6
  8
0
  6
CONTINUOUS
 10
-101.0
 20
12.4
 30
0.0
 11
-101.0
 21
12.699999999999999
 31
0.0
  0
LINE
  5
4D7
  8
0
  6
CONTINUOUS
 10
-100.199997
 20
12.4
 30
0.0
 11
-101.0
 21
12.4
 31
0.0
  0
ARC
  5
4D8
  8
0
  6
CONTINUOUS
 10
-101.0
 20
12.300000000000001
 30
0.0
 40
0.02
 50
90.0
 51
180.0
  0
LINE
  5
4D9
  8
0
  6
CONTINUOUS
 10
-101.0
 20
12.199999999999999
 30
0.0
 11
-101.0
 21
12.300000000000001
 31
0.0
  0
ARC
  5
4DA
  8
0
  6
CONTINUOUS
 10
-101.0
 20
12.199999999999999
 30
0.0
 40
0.02
 50
180.0
 51
270.0
  0
LINE
  5
4DB
  8
0
  6
CONTINUOUS
 10
8.9000000000000004
 20
11.9
 30
0.0
 11
7.7000000000000002
 21
11.9
 31
0.0
  0
LINE
  5
4DC
  8
0
  6
CONTINUOUS
 10
7.7000000000000002
 20
12.1
 30
0.0
 11
9.0
 21
12.1
 31
0.0
  0
LINE
  5
4DD
  8
0
  6
CONTINUOUS
 10
5.5999999999999988
 20
12.4
 30
0.0
 11
4.0
 21
12.4
 31
0.0
  0
LINE
  5
4DE
  8
0
  6
CONTINUOUS
 10
-10.4
 20
12.5
 30
0.0
 11
-10.4
 21
12.5
 31
0.0
  0
LINE
  5
4DF
  8
0
  6
CONTINUOUS
 10
-9.6999999999999993
 20
12.4
 30
0.0
 11
-9.9000000000000004
 21
12.5
 31
0.0
  0
LINE
  5
4E0
  8
0
  6
CONTINUOUS
 10
-10.800000000000001
 20
12.699999999999999
 30
0.0
 11
-10.6
 21
12.699999999999999
 31
0.0
  0
LINE
  5
4E1
  8
0
  6
CONTINUOUS
 10
-11.0
 20
12.699999999999999
 30
0.0
 11
-10.800000000000001
 21
12.699999999999999
 31
0.0
  0
LINE
  5
4E2
  8
0
  6
CONTINUOUS
 10
-8.0
 20
12.5
 30
0.0
 11
-8.0
 21
12.5
 31
0.0
  0
LINE
  5
4E3
  8
0
  6
CONTINUOUS
 10
-10.0
 20
12.5
 30
0.0
 11
-10.0
 21
12.5
 31
0.0
  0
LINE
  5
4E4
  8
0
  6
CONTINUOUS
 10
-8.5
 20
12.4
 30
0.0
 11
-9.0
 21
12.4
 31
0.0
  0
LINE
  5
4E5
  8
0
  6
CONTINUOUS
 10
-10.5
 20
12.5
 30
0.0
 11
-10.4
 21
12.5
 31
0.0
  0
LINE
  5
4E6
  8
0
  6
CONTINUOUS
 10
-8.4000000000000004
 20
12.6
 30
0.0
 11
-9.0
 21
12.6
 31
0.0
  0
LINE
  5
4E7
  8
0
  6
CONTINUOUS
 10
-10.6
 20
12.699999999999999
 30
0.0
 11
-10.5
 21
12.699999999999999
 31
0.0
  0
LINE
  5
4E8
  8
0
  6
CONTINUOUS
 10
-9.5999999999999996
 20
12.6
 30
0.0
 11
-9.5
 21
12.6
 31
0.0
  0
LINE
  5
4E9
  8
0
  6
CONTINUOUS
 10
-10.0
 20
12.5
 30
0.0
 11
-9.9000000000000004
 21
12.5
 31
0.0
  0
LINE
  5
4EA
  8
0
  6
CONTINUOUS
 10
-10.0
 20
12.5
 30
0.0
 11
-10.0
 21
12.5
 31
0.0
  0
LINE
  5
4EB
  8
0
  6
CONTINUOUS
 10
-10.5
 20
12.5
 30
0.0
 11
-10.5
 21
12.5
 31
0.0
  0
LINE
  5
4EC
  8
0
  6
CONTINUOUS
 10
-10.4
 20
12.5
 30
0.0
 11
-10.4
 21
12.5
 31
0.0
  0
LINE
  5
4ED
  8
0
  6
CONTINUOUS
 10
-10.5
 20
12.5
 30
0.0
 11
-10.6
 21
12.5
 31
0.0
  0
LINE
  5
4EE
  8
0
  6
CONTINUOUS
 10
-10.699999999999999
 20
12.5
 30
0.0
 11
-10.699999999999999
 21
12.5
 31
0.0
  0
LINE
  5
4EF
  8
0
  6
CONTINUOUS
 10
-10.4
 20
12.5
 30
0.0
 11
-10.5
 21
12.5
 31
0.0
  0
LINE
  5
4F0
  8
0
  6
CONTINUOUS
 10
-8.5999999999999996
 20
13.1
 30
0.0
 11
-8.5999999999999996
 21
13.1
 31
0.0
  0
LINE
  5
4F1
  8
0
  6
CONTINUOUS
 10
-8.6999999999999993
 20
13.199999999999999
 30
0.0
 11
-8.6999999999999993
 21
13.199999999999999
 31
0.0
  0
LINE
  5
4F2
  8
0
  6
CONTINUOUS
 10
-8.6999999999999993
 20
13.4
 30
0.0
 11
-8.5999999999999996
 21
13.300000000000001
 31
0.0
  0
LINE
  5
4F3
  8
0
  6
CONTINUOUS
 10
-8.5
 20
13.300000000000001
 30
0.0
 11
-8.5
 21
13.300000000000001
 31
0.0
  0
LINE
  5
4F4
  8
0
  6
CONTINUOUS
 10
8.3000000000000007
 20
13.4
 30
0.0
 11
9.0
 21
13.4
 31
0.0
  0
LINE
  5
4F5
  8
0
  6
CONTINUOUS
 10
9.0999999999999996
 20
14.0
 30
0.0
 11
8.5999999999999996
 21
14.0
 31
0.0
  0
LINE
  5
4F6
  8
0
  6
CONTINUOUS
 10
9.0999999999999996
 20
14.300000000000001
 30
0.0
 11
8.5999999999999996
 21
14.300000000000001
 31
0.0
  0
LINE
  5
4F7
  8
0
  6
CONTINUOUS
 10
4.0
 20
14.6
 30
0.0
 11
8.0999999999999996
 21
14.6
 31
0.0
  0
LINE
  5
4F8
  8
0
  6
CONTINUOUS
 10
1.1000000000000001
 20
14.0
 30
0.0
 11
8.3000000000000007
 21
13.4
 31
0.0
  0
LINE
  5
4F9
  8
0
  6
CONTINUOUS
 10
0.8
 20
72.599997999999999
 30
0.0
 11
0.9
 21
72.699996999999996
 31
0.0
  0
LINE
  5
4FA
  8
0
  6
CONTINUOUS
 10
1.0
 20
16.0
 30
0.0
 11
0.9
 21
16.0
 31
0.0
  0
LINE
  5
4FB
  8
0
  6
CONTINUOUS
 10
9.0999999999999996
 20
16.600000000000001
 30
0.0
 11
8.5999999999999996
 21
16.600000000000001
 31
0.0
  0
LINE
  5
4FC
  8
0
  6
CONTINUOUS
 10
0.9
 20
16.0
 30
0.0
 11
1.0
 21
16.0
 31
0.0
  0
LINE
  5
4FD
  8
0
  6
CONTINUOUS
 10
-7.7000000000000002
 20
19.899999999999999
 30
0.0
 11
-7.7000000000000002
 21
19.899999999999999
 31
0.0
  0
LINE
  5
4FE
  8
0
  6
CONTINUOUS
 10
-7.9000000000000004
 20
20.0
 30
0.0
 11
-7.9000000000000004
 21
20.0
 31
0.0
  0
LINE
  5
4FF
  8
0
  6
CONTINUOUS
 10
-7.7999999999999989
 20
20.100000000000001
 30
0.0
 11
-7.7999999999999989
 21
20.100000000000001
 31
0.0
  0
LINE
  5
500
  8
0
  6
CONTINUOUS
 10
-7.7000000000000002
 20
20.0
 30
0.0
 11
-7.5999999999999988
 21
20.0
 31
0.0
  0
LINE
  5
501
  8
0
  6
CONTINUOUS
 10
4.0
 20
21.600000000000001
 30
0.0
 11
8.0999999999999996
 21
21.600000000000001
 31
0.0
  0
LINE
  5
502
  8
0
  6
CONTINUOUS
 10
-3.7999999999999989
 20
23.700001
 30
0.0
 11
-3.7999999999999989
 21
23.700001
 31
0.0
  0
LINE
  5
503
  8
0
  6
CONTINUOUS
 10
-1.6000000000000001
 20
22.299999
 30
0.0
 11
-1.6000000000000001
 21
22.299999
 31
0.0
  0
LINE
  5
504
  8
0
  6
CONTINUOUS
 10
-1.8
 20
22.399999999999999
 30
0.0
 11
-1.8
 21
22.399999999999999
 31
0.0
  0
LINE
  5
505
  8
0
  6
CONTINUOUS
 10
-1.7
 20
22.600000000000001
 30
0.0
 11
-1.7
 21
22.5
 31
0.0
  0
LINE
  5
506
  8
0
  6
CONTINUOUS
 10
-1.5
 20
22.5
 30
0.0
 11
-1.5
 21
22.5
 31
0.0
  0
LINE
  5
507
  8
0
  6
CONTINUOUS
 10
0.9
 20
16.0
 30
0.0
 11
0.8
 21
16.100000000000001
 31
0.0
  0
LINE
  5
508
  8
0
  6
CONTINUOUS
 10
-8.1999999999999993
 20
24.100000000000001
 30
0.0
 11
-7.7999999999999989
 21
23.399999999999999
 31
0.0
  0
LINE
  5
509
  8
0
  6
CONTINUOUS
 10
0.8
 20
29.100000000000001
 30
0.0
 11
0.8
 21
29.100000000000001
 31
0.0
  0
LINE
  5
50A
  8
0
  6
CONTINUOUS
 10
-0.6
 20
27.600000000000001
 30
0.0
 11
-0.6
 21
27.600000000000001
 31
0.0
  0
LINE
  5
50B
  8
0
  6
CONTINUOUS
 10
-0.8
 20
27.700001
 30
0.0
 11
-0.8
 21
27.700001
 31
0.0
  0
LINE
  5
50C
  8
0
  6
CONTINUOUS
 10
-0.7
 20
27.799999
 30
0.0
 11
-0.7
 21
27.799999
 31
0.0
  0
LINE
  5
50D
  8
0
  6
CONTINUOUS
 10
-0.5
 20
27.700001
 30
0.0
 11
-0.5
 21
27.700001
 31
0.0
  0
LINE
  5
50E
  8
0
  6
CONTINUOUS
 10
-5.5999999999999988
 20
26.299999
 30
0.0
 11
-5.7000000000000002
 21
26.399999999999999
 31
0.0
  0
LINE
  5
50F
  8
0
  6
CONTINUOUS
 10
-8.6999999999999993
 20
13.1
 30
0.0
 11
-8.6999999999999993
 21
13.199999999999999
 31
0.0
  0
LINE
  5
510
  8
0
  6
CONTINUOUS
 10
-8.6999999999999993
 20
13.300000000000001
 30
0.0
 11
-8.6999999999999993
 21
13.300000000000001
 31
0.0
  0
LINE
  5
511
  8
0
  6
CONTINUOUS
 10
-8.5
 20
13.300000000000001
 30
0.0
 11
-8.5
 21
13.300000000000001
 31
0.0
  0
LINE
  5
512
  8
0
  6
CONTINUOUS
 10
-8.5
 20
13.199999999999999
 30
0.0
 11
-8.5
 21
13.1
 31
0.0
  0
LINE
  5
513
  8
0
  6
CONTINUOUS
 10
-7.7999999999999989
 20
19.899999999999999
 30
0.0
 11
-7.7999999999999989
 21
19.899999999999999
 31
0.0
  0
LINE
  5
514
  8
0
  6
CONTINUOUS
 10
-7.7999999999999989
 20
20.100000000000001
 30
0.0
 11
-7.7999999999999989
 21
20.100000000000001
 31
0.0
  0
LINE
  5
515
  8
0
  6
CONTINUOUS
 10
-7.7000000000000002
 20
20.100000000000001
 30
0.0
 11
-7.7000000000000002
 21
20.100000000000001
 31
0.0
  0
LINE
  5
516
  8
0
  6
CONTINUOUS
 10
-7.7000000000000002
 20
19.899999999999999
 30
0.0
 11
-7.7000000000000002
 21
19.899999999999999
 31
0.0
  0
LINE
  5
517
  8
0
  6
CONTINUOUS
 10
-5.7000000000000002
 20
26.399999999999999
 30
0.0
 11
-5.7000000000000002
 21
26.399999999999999
 31
0.0
  0
LINE
  5
518
  8
0
  6
CONTINUOUS
 10
-5.5999999999999988
 20
26.299999
 30
0.0
 11
-5.5999999999999988
 21
26.299999
 31
0.0
  0
LINE
  5
519
  8
0
  6
CONTINUOUS
 10
-5.5999999999999988
 20
26.399999999999999
 30
0.0
 11
-5.5999999999999988
 21
26.299999
 31
0.0
  0
LINE
  5
51A
  8
0
  6
CONTINUOUS
 10
-5.5999999999999988
 20
26.399999999999999
 30
0.0
 11
-5.5999999999999988
 21
26.399999999999999
 31
0.0
  0
LINE
  5
51B
  8
0
  6
CONTINUOUS
 10
-5.5999999999999988
 20
26.299999
 30
0.0
 11
-5.5999999999999988
 21
26.299999
 31
0.0
  0
LINE
  5
51C
  8
0
  6
CONTINUOUS
 10
-5.5999999999999988
 20
26.399999999999999
 30
0.0
 11
-5.5999999999999988
 21
26.399999999999999
 31
0.0
  0
LINE
  5
51D
  8
0
  6
CONTINUOUS
 10
-3.7999999999999989
 20
23.100000000000001
 30
0.0
 11
-3.7999999999999989
 21
23.5
 31
0.0
  0
LINE
  5
51E
  8
0
  6
CONTINUOUS
 10
-5.5999999999999988
 20
26.399999999999999
 30
0.0
 11
-5.5999999999999988
 21
26.399999999999999
 31
0.0
  0
LINE
  5
51F
  8
0
  6
CONTINUOUS
 10
-0.2
 20
32.200001
 30
0.0
 11
-0.2
 21
32.099997999999999
 31
0.0
  0
LINE
  5
520
  8
0
  6
CONTINUOUS
 10
-1.7
 20
22.299999
 30
0.0
 11
-1.7
 21
22.399999999999999
 31
0.0
  0
LINE
  5
521
  8
0
  6
CONTINUOUS
 10
-1.7
 20
22.5
 30
0.0
 11
-1.7
 21
22.5
 31
0.0
  0
LINE
  5
522
  8
0
  6
CONTINUOUS
 10
-1.6000000000000001
 20
22.5
 30
0.0
 11
-1.6000000000000001
 21
22.5
 31
0.0
  0
LINE
  5
523
  8
0
  6
CONTINUOUS
 10
-1.6000000000000001
 20
22.399999999999999
 30
0.0
 11
-1.6000000000000001
 21
22.299999
 31
0.0
  0
LINE
  5
524
  8
0
  6
CONTINUOUS
 10
-0.7
 20
27.600000000000001
 30
0.0
 11
-0.7
 21
27.600000000000001
 31
0.0
  0
LINE
  5
525
  8
0
  6
CONTINUOUS
 10
-0.7
 20
27.799999
 30
0.0
 11
-0.7
 21
27.799999
 31
0.0
  0
LINE
  5
526
  8
0
  6
CONTINUOUS
 10
-0.6
 20
27.799999
 30
0.0
 11
-0.6
 21
27.799999
 31
0.0
  0
LINE
  5
527
  8
0
  6
CONTINUOUS
 10
-0.6
 20
27.600000000000001
 30
0.0
 11
-0.6
 21
27.600000000000001
 31
0.0
  0
LINE
  5
528
  8
0
  6
CONTINUOUS
 10
-3.7999999999999989
 20
23.5
 30
0.0
 11
-3.7999999999999989
 21
23.700001
 31
0.0
  0
LINE
  5
529
  8
0
  6
CONTINUOUS
 10
-5.5999999999999988
 20
26.299999
 30
0.0
 11
-5.5999999999999988
 21
26.299999
 31
0.0
  0
LINE
  5
52A
  8
0
  6
CONTINUOUS
 10
-5.5999999999999988
 20
26.399999999999999
 30
0.0
 11
-5.5999999999999988
 21
26.399999999999999
 31
0.0
  0
LINE
  5
52B
  8
0
  6
CONTINUOUS
 10
0.7
 20
29.399999999999999
 30
0.0
 11
0.8
 21
29.100000000000001
 31
0.0
  0
LINE
  5
52C
  8
0
  6
CONTINUOUS
 10
0.8
 20
16.100000000000001
 30
0.0
 11
0.8
 21
72.599997999999999
 31
0.0
  0
LINE
  5
52D
  8
0
  6
CONTINUOUS
 10
0.9
 20
16.0
 30
0.0
 11
0.9
 21
72.699996999999996
 31
0.0
  0
LINE
  5
52E
  8
0
  6
CONTINUOUS
 10
1.0
 20
14.1
 30
0.0
 11
1.0
 21
73.0
 31
0.0
  0
LINE
  5
52F
  8
0
  6
CONTINUOUS
 10
-5.5999999999999988
 20
26.299999
 30
0.0
 11
-5.5999999999999988
 21
26.200001
 31
0.0
  0
LINE
  5
530
  8
0
  6
CONTINUOUS
 10
-5.5999999999999988
 20
26.399999999999999
 30
0.0
 11
-5.5999999999999988
 21
26.399999999999999
 31
0.0
  0
LINE
  5
531
  8
0
  6
CONTINUOUS
 10
3.7999999999999989
 20
21.399999999999999
 30
0.0
 11
3.7999999999999989
 21
14.800000000000001
 31
0.0
  0
LINE
  5
532
  8
0
  6
CONTINUOUS
 10
4.0
 20
12.4
 30
0.0
 11
4.0
 21
13.800000000000001
 31
0.0
  0
LINE
  5
533
  8
0
  6
CONTINUOUS
 10
0.8
 20
33.900002000000001
 30
0.0
 11
-0.2
 21
32.299999
 31
0.0
  0
LINE
  5
534
  8
0
  6
CONTINUOUS
 10
-7.9000000000000004
 20
23.299999
 30
0.0
 11
-7.9000000000000004
 21
23.299999
 31
0.0
  0
LINE
  5
535
  8
0
  6
CONTINUOUS
 10
-5.7000000000000002
 20
26.200001
 30
0.0
 11
-5.7000000000000002
 21
26.200001
 31
0.0
  0
LINE
  5
536
  8
0
  6
CONTINUOUS
 10
-5.5999999999999988
 20
26.399999999999999
 30
0.0
 11
-5.5999999999999988
 21
26.399999999999999
 31
0.0
  0
LINE
  5
537
  8
0
  6
CONTINUOUS
 10
5.5999999999999988
 20
12.4
 30
0.0
 11
5.5999999999999988
 21
13.6
 31
0.0
  0
LINE
  5
538
  8
0
  6
CONTINUOUS
 10
-7.7999999999999989
 20
23.399999999999999
 30
0.0
 11
-7.7999999999999989
 21
23.399999999999999
 31
0.0
  0
LINE
  5
539
  8
0
  6
CONTINUOUS
 10
-7.9000000000000004
 20
23.299999
 30
0.0
 11
-7.9000000000000004
 21
23.299999
 31
0.0
  0
LINE
  5
53A
  8
0
  6
CONTINUOUS
 10
-7.7999999999999989
 20
23.399999999999999
 30
0.0
 11
-7.9000000000000004
 21
23.299999
 31
0.0
  0
LINE
  5
53B
  8
0
  6
CONTINUOUS
 10
7.7000000000000002
 20
11.9
 30
0.0
 11
7.7000000000000002
 21
12.1
 31
0.0
  0
LINE
  5
53C
  8
0
  6
CONTINUOUS
 10
8.3000000000000007
 20
14.800000000000001
 30
0.0
 11
8.3000000000000007
 21
21.399999999999999
 31
0.0
  0
LINE
  5
53D
  8
0
  6
CONTINUOUS
 10
8.3000000000000007
 20
13.4
 30
0.0
 11
8.3000000000000007
 21
14.800000000000001
 31
0.0
  0
LINE
  5
53E
  8
0
  6
CONTINUOUS
 10
8.3000000000000007
 20
21.399999999999999
 30
0.0
 11
8.3000000000000007
 21
73.699996999999996
 31
0.0
  0
LINE
  5
53F
  8
0
  6
CONTINUOUS
 10
8.5999999999999996
 20
13.4
 30
0.0
 11
8.5999999999999996
 21
73.699996999999996
 31
0.0
  0
LINE
  5
540
  8
0
  6
CONTINUOUS
 10
8.6999999999999993
 20
64.5
 30
0.0
 11
8.6999999999999993
 21
66.699996999999996
 31
0.0
  0
LINE
  5
541
  8
0
  6
CONTINUOUS
 10
9.0
 20
13.4
 30
0.0
 11
9.0
 21
14.0
 31
0.0
  0
LINE
  5
542
  8
0
  6
CONTINUOUS
 10
9.0
 20
12.1
 30
0.0
 11
9.0
 21
14.0
 31
0.0
  0
LINE
  5
543
  8
0
  6
CONTINUOUS
 10
9.1999999999999993
 20
12.199999999999999
 30
0.0
 11
9.1999999999999993
 21
73.099997999999985
 31
0.0
  0
LINE
  5
544
  8
0
  6
CONTINUOUS
 10
-0.2
 20
30.600000000000001
 30
0.0
 11
0.2
 21
30.799999
 31
0.0
  0
LINE
  5
545
  8
0
  6
CONTINUOUS
 10
-0.6
 20
27.799999
 30
0.0
 11
-0.6
 21
27.799999
 31
0.0
  0
LINE
  5
546
  8
0
  6
CONTINUOUS
 10
-0.8
 20
27.700001
 30
0.0
 11
-0.8
 21
27.700001
 31
0.0
  0
LINE
  5
547
  8
0
  6
CONTINUOUS
 10
-0.7
 20
27.600000000000001
 30
0.0
 11
-0.7
 21
27.600000000000001
 31
0.0
  0
LINE
  5
548
  8
0
  6
CONTINUOUS
 10
-0.5
 20
27.700001
 30
0.0
 11
-0.5
 21
27.700001
 31
0.0
  0
LINE
  5
549
  8
0
  6
CONTINUOUS
 10
-3.7999999999999989
 20
21.799999
 30
0.0
 11
-3.8999999999999999
 21
21.799999
 31
0.0
  0
LINE
  5
54A
  8
0
  6
CONTINUOUS
 10
-7.7000000000000002
 20
20.100000000000001
 30
0.0
 11
-7.7000000000000002
 21
20.100000000000001
 31
0.0
  0
LINE
  5
54B
  8
0
  6
CONTINUOUS
 10
-7.9000000000000004
 20
20.0
 30
0.0
 11
-7.9000000000000004
 21
20.0
 31
0.0
  0
LINE
  5
54C
  8
0
  6
CONTINUOUS
 10
-7.7999999999999989
 20
19.899999999999999
 30
0.0
 11
-7.7999999999999989
 21
19.899999999999999
 31
0.0
  0
LINE
  5
54D
  8
0
  6
CONTINUOUS
 10
-7.7000000000000002
 20
20.0
 30
0.0
 11
-7.5999999999999988
 21
20.0
 31
0.0
  0
LINE
  5
54E
  8
0
  6
CONTINUOUS
 10
-1.6000000000000001
 20
22.600000000000001
 30
0.0
 11
-1.6000000000000001
 21
22.5
 31
0.0
  0
LINE
  5
54F
  8
0
  6
CONTINUOUS
 10
-1.8
 20
22.5
 30
0.0
 11
-1.8
 21
22.5
 31
0.0
  0
LINE
  5
550
  8
0
  6
CONTINUOUS
 10
-1.7
 20
22.299999
 30
0.0
 11
-1.7
 21
22.299999
 31
0.0
  0
LINE
  5
551
  8
0
  6
CONTINUOUS
 10
-1.5
 20
22.399999999999999
 30
0.0
 11
-1.5
 21
22.399999999999999
 31
0.0
  0
LINE
  5
552
  8
0
  6
CONTINUOUS
 10
-8.5999999999999996
 20
13.4
 30
0.0
 11
-8.5999999999999996
 21
13.300000000000001
 31
0.0
  0
LINE
  5
553
  8
0
  6
CONTINUOUS
 10
-8.6999999999999993
 20
13.300000000000001
 30
0.0
 11
-8.6999999999999993
 21
13.300000000000001
 31
0.0
  0
LINE
  5
554
  8
0
  6
CONTINUOUS
 10
-8.6999999999999993
 20
13.1
 30
0.0
 11
-8.5999999999999996
 21
13.1
 31
0.0
  0
LINE
  5
555
  8
0
  6
CONTINUOUS
 10
-8.5
 20
13.199999999999999
 30
0.0
 11
-8.5
 21
13.199999999999999
 31
0.0
  0
LINE
  5
556
  8
0
  6
CONTINUOUS
 10
8.5999999999999996
 20
66.699996999999996
 30
0.0
 11
9.1999999999999993
 21
66.699996999999996
 31
0.0
  0
LINE
  5
557
  8
0
  6
CONTINUOUS
 10
8.5999999999999996
 20
64.5
 30
0.0
 11
9.1999999999999993
 21
64.5
 31
0.0
  0
LINE
  5
558
  8
0
  6
CONTINUOUS
 10
1.1000000000000001
 20
73.099997999999985
 30
0.0
 11
8.3000000000000007
 21
73.699996999999996
 31
0.0
  0
LINE
  5
559
  8
0
  6
CONTINUOUS
 10
1.0
 20
72.699996999999996
 30
0.0
 11
0.9
 21
72.699996999999996
 31
0.0
  0
LINE
  5
55A
  8
0
  6
CONTINUOUS
 10
9.0999999999999996
 20
73.099997999999985
 30
0.0
 11
8.5999999999999996
 21
73.199996999999996
 31
0.0
  0
LINE
  5
55B
  8
0
  6
CONTINUOUS
 10
8.5999999999999996
 20
73.699996999999996
 30
0.0
 11
8.3000000000000007
 21
73.699996999999996
 31
0.0
  0
CIRCLE
  5
55C
  8
0
  6
CONTINUOUS
 10
-8.5999999999999996
 20
13.199999999999999
 30
0.0
 40
0.315
  0
ARC
  5
55D
  8
0
  6
CONTINUOUS
 10
-8.5999999999999996
 20
13.4
 30
0.0
 40
0.05
 50
240.0
 51
300.0
  0
ARC
  5
55E
  8
0
  6
CONTINUOUS
 10
-8.6999999999999993
 20
13.300000000000001
 30
0.0
 40
0.05
 50
300.0
 51
0.0
  0
ARC
  5
55F
  8
0
  6
CONTINUOUS
 10
-8.6999999999999993
 20
13.199999999999999
 30
0.0
 40
0.05
 50
0.0
 51
60.0
  0
ARC
  5
560
  8
0
  6
CONTINUOUS
 10
-8.5999999999999996
 20
13.1
 30
0.0
 40
0.05
 50
60.0
 51
120.0
  0
ARC
  5
561
  8
0
  6
CONTINUOUS
 10
-8.5
 20
13.199999999999999
 30
0.0
 40
0.05
 50
120.0
 51
180.0
  0
ARC
  5
562
  8
0
  6
CONTINUOUS
 10
-8.5
 20
13.300000000000001
 30
0.0
 40
0.05
 50
180.0
 51
240.0
  0
ARC
  5
563
  8
0
  6
CONTINUOUS
 10
-8.5
 20
13.199999999999999
 30
0.0
 40
0.03
 50
300.0
 51
60.0
  0
ARC
  5
564
  8
0
  6
CONTINUOUS
 10
-8.5999999999999996
 20
13.300000000000001
 30
0.0
 40
0.03
 50
0.0
 51
120.0
  0
ARC
  5
565
  8
0
  6
CONTINUOUS
 10
-8.6999999999999993
 20
13.199999999999999
 30
0.0
 40
0.03
 50
120.0
 51
240.0
  0
ARC
  5
566
  8
0
  6
CONTINUOUS
 10
-8.6999999999999993
 20
13.1
 30
0.0
 40
0.03
 50
180.0
 51
300.0
  0
ARC
  5
567
  8
0
  6
CONTINUOUS
 10
-8.6999999999999993
 20
13.300000000000001
 30
0.0
 40
0.03
 50
60.0
 51
180.0
  0
ARC
  5
568
  8
0
  6
CONTINUOUS
 10
-8.5999999999999996
 20
13.1
 30
0.0
 40
0.03
 50
240.0
 51
0.0
  0
ARC
  5
569
  8
0
  6
CONTINUOUS
 10
-7.0999999999999988
 20
19.799999
 30
0.0
 40
1.0497019999999999
 50
315.0
 51
10.5
  0
CIRCLE
  5
56A
  8
0
  6
CONTINUOUS
 10
-7.7999999999999989
 20
20.0
 30
0.0
 40
0.315
  0
ARC
  5
56B
  8
0
  6
CONTINUOUS
 10
-7.7999999999999989
 20
20.200001
 30
0.0
 40
0.05
 50
240.0
 51
300.0
  0
ARC
  5
56C
  8
0
  6
CONTINUOUS
 10
-7.9000000000000004
 20
20.100000000000001
 30
0.0
 40
0.05
 50
300.0
 51
0.0
  0
ARC
  5
56D
  8
0
  6
CONTINUOUS
 10
-7.9000000000000004
 20
19.899999999999999
 30
0.0
 40
0.05
 50
0.0
 51
60.0
  0
ARC
  5
56E
  8
0
  6
CONTINUOUS
 10
-7.7999999999999989
 20
19.799999
 30
0.0
 40
0.05
 50
60.0
 51
120.0
  0
ARC
  5
56F
  8
0
  6
CONTINUOUS
 10
-7.5999999999999988
 20
19.899999999999999
 30
0.0
 40
0.05
 50
120.0
 51
180.0
  0
ARC
  5
570
  8
0
  6
CONTINUOUS
 10
-7.5999999999999988
 20
20.100000000000001
 30
0.0
 40
0.05
 50
180.0
 51
240.0
  0
ARC
  5
571
  8
0
  6
CONTINUOUS
 10
-7.7000000000000002
 20
20.0
 30
0.0
 40
0.03
 50
300.0
 51
60.0
  0
ARC
  5
572
  8
0
  6
CONTINUOUS
 10
-7.7000000000000002
 20
20.100000000000001
 30
0.0
 40
0.03
 50
0.0
 51
120.0
  0
ARC
  5
573
  8
0
  6
CONTINUOUS
 10
-7.9000000000000004
 20
20.0
 30
0.0
 40
0.03
 50
120.0
 51
240.0
  0
ARC
  5
574
  8
0
  6
CONTINUOUS
 10
-7.7999999999999989
 20
19.899999999999999
 30
0.0
 40
0.03
 50
180.0
 51
300.0
  0
ARC
  5
575
  8
0
  6
CONTINUOUS
 10
-7.7999999999999989
 20
20.100000000000001
 30
0.0
 40
0.03
 50
60.0
 51
180.0
  0
ARC
  5
576
  8
0
  6
CONTINUOUS
 10
-7.7000000000000002
 20
19.899999999999999
 30
0.0
 40
0.03
 50
240.0
 51
0.0
  0
ARC
  5
577
  8
0
  6
CONTINUOUS
 10
-10.199999999999999
 20
29.5
 30
0.0
 40
5.1641779999999988
 50
309.60000600000001
 51
309.79998799999998
  0
ARC
  5
578
  8
0
  6
CONTINUOUS
 10
-9.0
 20
26.100000000000001
 30
0.0
 40
1.835848999999999
 50
295.79998799999998
 51
313.0
  0
CIRCLE
  5
579
  8
0
  6
CONTINUOUS
 10
-7.5999999999999988
 20
24.100000000000001
 30
0.0
 40
0.21
  0
CIRCLE
  5
57A
  8
0
  6
CONTINUOUS
 10
-1.7
 20
22.399999999999999
 30
0.0
 40
0.315
  0
ARC
  5
57B
  8
0
  6
CONTINUOUS
 10
-1.7
 20
22.600000000000001
 30
0.0
 40
0.05
 50
240.0
 51
300.0
  0
ARC
  5
57C
  8
0
  6
CONTINUOUS
 10
-1.8
 20
22.5
 30
0.0
 40
0.05
 50
300.0
 51
0.0
  0
ARC
  5
57D
  8
0
  6
CONTINUOUS
 10
-1.8
 20
22.399999999999999
 30
0.0
 40
0.05
 50
0.0
 51
60.0
  0
ARC
  5
57E
  8
0
  6
CONTINUOUS
 10
-1.7
 20
22.299999
 30
0.0
 40
0.05
 50
60.0
 51
120.0
  0
ARC
  5
57F
  8
0
  6
CONTINUOUS
 10
-1.5
 20
22.399999999999999
 30
0.0
 40
0.05
 50
120.0
 51
180.0
  0
ARC
  5
580
  8
0
  6
CONTINUOUS
 10
-1.5
 20
22.5
 30
0.0
 40
0.05
 50
180.0
 51
240.0
  0
ARC
  5
581
  8
0
  6
CONTINUOUS
 10
-1.5
 20
22.399999999999999
 30
0.0
 40
0.03
 50
300.0
 51
60.0
  0
ARC
  5
582
  8
0
  6
CONTINUOUS
 10
-1.6000000000000001
 20
22.5
 30
0.0
 40
0.03
 50
0.0
 51
120.0
  0
ARC
  5
583
  8
0
  6
CONTINUOUS
 10
-1.8
 20
22.399999999999999
 30
0.0
 40
0.03
 50
120.0
 51
240.0
  0
ARC
  5
584
  8
0
  6
CONTINUOUS
 10
-1.7
 20
22.299999
 30
0.0
 40
0.03
 50
180.0
 51
300.0
  0
ARC
  5
585
  8
0
  6
CONTINUOUS
 10
-1.7
 20
22.5
 30
0.0
 40
0.03
 50
60.0
 51
180.0
  0
ARC
  5
586
  8
0
  6
CONTINUOUS
 10
-1.6000000000000001
 20
22.299999
 30
0.0
 40
0.03
 50
240.0
 51
0.0
  0
CIRCLE
  5
587
  8
0
  6
CONTINUOUS
 10
-0.7
 20
27.700001
 30
0.0
 40
0.315
  0
ARC
  5
588
  8
0
  6
CONTINUOUS
 10
-0.7
 20
27.799999
 30
0.0
 40
0.05
 50
240.0
 51
300.0
  0
ARC
  5
589
  8
0
  6
CONTINUOUS
 10
-0.8
 20
27.799999
 30
0.0
 40
0.05
 50
300.0
 51
0.0
  0
ARC
  5
58A
  8
0
  6
CONTINUOUS
 10
-0.8
 20
27.600000000000001
 30
0.0
 40
0.05
 50
0.0
 51
60.0
  0
ARC
  5
58B
  8
0
  6
CONTINUOUS
 10
-0.7
 20
27.5
 30
0.0
 40
0.05
 50
60.0
 51
120.0
  0
ARC
  5
58C
  8
0
  6
CONTINUOUS
 10
-0.5
 20
27.600000000000001
 30
0.0
 40
0.05
 50
120.0
 51
180.0
  0
ARC
  5
58D
  8
0
  6
CONTINUOUS
 10
-0.5
 20
27.799999
 30
0.0
 40
0.05
 50
180.0
 51
240.0
  0
ARC
  5
58E
  8
0
  6
CONTINUOUS
 10
-0.2
 20
32.099997999999999
 30
0.0
 40
0.05
 50
180.69999699999991
 51
198.10000600000001
  0
ARC
  5
58F
  8
0
  6
CONTINUOUS
 10
-0.5
 20
27.700001
 30
0.0
 40
0.03
 50
300.0
 51
60.0
  0
ARC
  5
590
  8
0
  6
CONTINUOUS
 10
-0.6
 20
27.799999
 30
0.0
 40
0.03
 50
0.0
 51
120.0
  0
ARC
  5
591
  8
0
  6
CONTINUOUS
 10
-0.8
 20
27.700001
 30
0.0
 40
0.03
 50
120.0
 51
240.0
  0
ARC
  5
592
  8
0
  6
CONTINUOUS
 10
-0.7
 20
27.600000000000001
 30
0.0
 40
0.03
 50
180.0
 51
300.0
  0
ARC
  5
593
  8
0
  6
CONTINUOUS
 10
-0.7
 20
27.799999
 30
0.0
 40
0.03
 50
60.0
 51
180.0
  0
ARC
  5
594
  8
0
  6
CONTINUOUS
 10
-0.6
 20
27.600000000000001
 30
0.0
 40
0.03
 50
240.0
 51
0.0
  0
ARC
  5
595
  8
0
  6
CONTINUOUS
 10
9.9000000000000004
 20
5.2999999999999989
 30
0.0
 40
26.171026000000001
 50
129.699997
 51
132.10000600000001
  0
ARC
  5
596
  8
0
  6
CONTINUOUS
 10
8.9000000000000004
 20
12.199999999999999
 30
0.0
 40
0.25
 50
270.0
 51
0.0
  0
ARC
  5
597
  8
0
  6
CONTINUOUS
 10
1.1000000000000001
 20
14.1
 30
0.0
 40
0.12
 50
180.0
 51
265.0
  0
ARC
  5
598
  8
0
  6
CONTINUOUS
 10
0.9
 20
16.100000000000001
 30
0.0
 40
0.1
 50
180.0
 51
265.0
  0
ARC
  5
599
  8
0
  6
CONTINUOUS
 10
9.0999999999999996
 20
16.5
 30
0.0
 40
0.05
 50
0.0
 51
90.0
  0
ARC
  5
59A
  8
0
  6
CONTINUOUS
 10
9.0999999999999996
 20
14.300000000000001
 30
0.0
 40
0.05
 50
270.0
 51
0.0
  0
ARC
  5
59B
  8
0
  6
CONTINUOUS
 10
9.0999999999999996
 20
14.0
 30
0.0
 40
0.05
 50
272.0
 51
0.0
  0
ARC
  5
59C
  8
0
  6
CONTINUOUS
 10
1.1000000000000001
 20
73.0
 30
0.0
 40
0.12
 50
95.0
 51
180.0
  0
ARC
  5
59D
  8
0
  6
CONTINUOUS
 10
9.0999999999999996
 20
73.099997999999985
 30
0.0
 40
0.05
 50
0.0
 51
88.0
  0
LINE
  5
59E
  8
0
  6
CONTINUOUS
 10
7.9000000000000004
 20
0.4
 30
0.0
 11
7.9000000000000004
 21
11.9
 31
0.0
  0
LINE
  5
59F
  8
0
  6
CONTINUOUS
 10
8.5999999999999996
 20
0.4
 30
0.0
 11
8.5999999999999996
 21
11.9
 31
0.0
  0
ARC
  5
5A0
  8
0
  6
CONTINUOUS
 10
7.7999999999999989
 20
0.4
 30
0.0
 40
0.15
 50
270.0
 51
0.0
  0
ARC
  5
5A1
  8
0
  6
CONTINUOUS
 10
7.7999999999999989
 20
0.4
 30
0.0
 40
0.85
 50
270.0
 51
0.0
  0
LINE
  5
5A2
  8
0
  6
CONTINUOUS
 10
4.4000000000000004
 20
0.3
 30
0.0
 11
7.7999999999999989
 21
0.3
 31
0.0
  0
LINE
  5
5A3
  8
0
  6
CONTINUOUS
 10
4.4000000000000004
 20
-0.4
 30
0.0
 11
7.7999999999999989
 21
-0.4
 31
0.0
  0
ARC
  5
5A4
  8
0
  6
CONTINUOUS
 10
2.1000000000000001
 20
0.4
 30
0.0
 40
0.85
 50
180.0
 51
257.89999399999999
  0
LINE
  5
5A5
  8
0
  6
CONTINUOUS
 10
1.8999999999999999
 20
2.8999999999999999
 30
0.0
 11
1.8999999999999999
 21
2.2000000000000002
 31
0.0
  0
LINE
  5
5A6
  8
0
  6
CONTINUOUS
 10
1.1999999999999991
 20
2.8999999999999999
 30
0.0
 11
1.1999999999999991
 21
0.4
 31
0.0
  0
LINE
  5
5A7
  8
0
  6
CONTINUOUS
 10
1.1999999999999991
 20
2.399999999999999
 30
0.0
 11
1.8999999999999999
 21
2.399999999999999
 31
0.0
  0
ARC
  5
5A8
  8
0
  6
CONTINUOUS
 10
1.5
 20
2.8999999999999999
 30
0.0
 40
0.35
 50
0.0
 51
180.0
  0
LINE
  5
5A9
  8
0
  6
CONTINUOUS
 10
1.8999999999999999
 20
2.0
 30
0.0
 11
1.8999999999999999
 21
-36.700001
 31
0.0
  0
LINE
  5
5AA
  8
0
  6
CONTINUOUS
 10
3.1000000000000001
 20
2.0
 30
0.0
 11
3.1000000000000001
 21
-4.0
 31
0.0
  0
LINE
  5
5AB
  8
0
  6
CONTINUOUS
 10
3.1000000000000001
 20
-35.900002000000001
 30
0.0
 11
3.1000000000000001
 21
-4.0
 31
0.0
  0
LINE
  5
5AC
  8
0
  6
CONTINUOUS
 10
4.2000000000000002
 20
12.4
 30
0.0
 11
4.2000000000000002
 21
2.399999999999999
 31
0.0
  0
ARC
  5
5AD
  8
0
  6
CONTINUOUS
 10
2.5
 20
2.0
 30
0.0
 40
0.6249979999999999
 50
3.0
 51
114.0
  0
LINE
  5
5AE
  8
0
  6
CONTINUOUS
 10
4.4000000000000004
 20
2.0
 30
0.0
 11
4.4000000000000004
 21
-4.0
 31
0.0
  0
ARC
  5
5AF
  8
0
  6
CONTINUOUS
 10
3.7000000000000002
 20
2.0
 30
0.0
 40
0.625
 50
0.0
 51
180.0
  0
LINE
  5
5B0
  8
0
  6
CONTINUOUS
 10
4.4000000000000004
 20
-35.900002000000001
 30
0.0
 11
4.4000000000000004
 21
-4.0
 31
0.0
  0
LINE
  5
5B1
  8
0
  6
CONTINUOUS
 10
5.4000000000000004
 20
-0.4
 30
0.0
 11
5.4000000000000004
 21
-35.900002000000001
 31
0.0
  0
LINE
  5
5B2
  8
0
  6
CONTINUOUS
 10
5.4000000000000004
 20
12.4
 30
0.0
 11
5.4000000000000004
 21
0.3
 31
0.0
  0
ARC
  5
5B3
  8
0
  6
CONTINUOUS
 10
2.5
 20
2.0
 30
0.0
 40
0.625
 50
102.0
 51
180.0
  0
LINE
  5
5B4
  8
0
  6
CONTINUOUS
 10
-10.5
 20
-35.900002000000001
 30
0.0
 11
-10.5
 21
12.5
 31
0.0
  0
LINE
  5
5B5
  8
0
  6
CONTINUOUS
 10
-9.3000000000000007
 20
-35.900002000000001
 30
0.0
 11
-9.3000000000000007
 21
12.4
 31
0.0
  0
ARC
  5
5B6
  8
0
  6
CONTINUOUS
 10
-3.7000000000000002
 20
-35.900002000000001
 30
0.0
 40
5.5983819999999991
 50
180.0
 51
0.0
  0
ARC
  5
5B7
  8
0
  6
CONTINUOUS
 10
-3.7000000000000002
 20
-35.900002000000001
 30
0.0
 40
6.7583809999999991
 50
180.0
 51
327.60000600000001
  0
LINE
  5
5B8
  8
0
  6
CONTINUOUS
 10
-10.4
 20
12.5
 30
0.0
 11
-10.0
 21
12.5
 31
0.0
  0
LINE
  5
5B9
  8
0
  6
CONTINUOUS
 10
-9.1999999999999993
 20
12.4
 30
0.0
 11
-9.0
 21
12.4
 31
0.0
  0
LINE
  5
5BA
  8
0
  6
CONTINUOUS
 10
-8.5
 20
12.4
 30
0.0
 11
-8.4000000000000004
 21
12.4
 31
0.0
  0
ARC
  5
5BB
  8
0
  6
CONTINUOUS
 10
93.499999999999986
 20
26.399999999999999
 30
0.0
 40
0.2
 50
90.0
 51
180.0
  0
LINE
  5
5BC
  8
0
  6
CONTINUOUS
 10
-98.099997999999985
 20
-0.5
 30
0.0
 11
-71.699996999999996
 21
-0.5
 31
0.0
  0
LINE
  5
5BD
  8
0
  6
CONTINUOUS
 10
-74.900002000000001
 20
10.800000000000001
 30
0.0
 11
-73.599997999999999
 21
15.800000000000001
 31
0.0
  0
LINE
  5
5BE
  8
0
  6
CONTINUOUS
 10
-73.599997999999999
 20
2.0
 30
0.0
 11
-74.199996999999996
 21
-0.5
 31
0.0
  0
LINE
  5
5BF
  8
0
  6
CONTINUOUS
 10
-74.199996999999996
 20
-0.5
 30
0.0
 11
-74.900002000000001
 21
2.0
 31
0.0
  0
LINE
  5
5C0
  8
0
  6
CONTINUOUS
 10
-74.199996999999996
 20
-0.5
 30
0.0
 11
-74.199996999999996
 21
73.599997999999999
 31
0.0
  0
TEXT
  5
5C1
  8
0
 10
-75.199996999999996
 20
2.6000000000000001
 30
0.0
 40
2.5
  1
138
 50
90.0
  0
LINE
  5
5C2
  8
0
  6
CONTINUOUS
 10
-91.800003000000004
 20
13.300000000000001
 30
0.0
 11
-71.699996999999996
 21
13.300000000000001
 31
0.0
  0
LINE
  5
5C3
  8
0
  6
CONTINUOUS
 10
-91.800003000000004
 20
73.599997999999999
 30
0.0
 11
-71.699996999999996
 21
73.599997999999999
 31
0.0
  0
LINE
  5
5C4
  8
0
  6
CONTINUOUS
 10
-73.599997999999999
 20
10.800000000000001
 30
0.0
 11
-74.900002000000001
 21
15.800000000000001
 31
0.0
  0
LINE
  5
5C5
  8
0
  6
CONTINUOUS
 10
-74.900002000000001
 20
71.099997999999999
 30
0.0
 11
-74.199996999999996
 21
73.599997999999999
 31
0.0
  0
LINE
  5
5C6
  8
0
  6
CONTINUOUS
 10
-74.199996999999996
 20
73.599997999999999
 30
0.0
 11
-73.599997999999999
 21
71.099997999999999
 31
0.0
  0
TEXT
  5
5C7
  8
0
 10
-75.199996999999996
 20
39.799999
 30
0.0
 40
2.5
  1
604
 50
90.0
  0
LINE
  5
5C8
  8
0
  6
CONTINUOUS
 10
-110.599998
 20
76.0
 30
0.0
 11
-110.599998
 21
96.900002000000001
 31
0.0
  0
LINE
  5
5C9
  8
0
  6
CONTINUOUS
 10
-94.199996999999996
 20
76.0
 30
0.0
 11
-94.199996999999996
 21
96.900002000000001
 31
0.0
  0
LINE
  5
5CA
  8
0
  6
CONTINUOUS
 10
-108.099998
 20
93.699996999999996
 30
0.0
 11
-110.599998
 21
94.400002000000001
 31
0.0
  0
LINE
  5
5CB
  8
0
  6
CONTINUOUS
 10
-110.599998
 20
94.400002000000001
 30
0.0
 11
-108.099998
 21
95.0
 31
0.0
  0
LINE
  5
5CC
  8
0
  6
CONTINUOUS
 10
-110.599998
 20
94.400002000000001
 30
0.0
 11
-94.199996999999996
 21
94.400002000000001
 31
0.0
  0
LINE
  5
5CD
  8
0
  6
CONTINUOUS
 10
-96.699996999999996
 20
95.0
 30
0.0
 11
-94.199996999999996
 21
94.400002000000001
 31
0.0
  0
LINE
  5
5CE
  8
0
  6
CONTINUOUS
 10
-94.199996999999996
 20
94.400002000000001
 30
0.0
 11
-96.699996999999996
 21
93.699996999999996
 31
0.0
  0
TEXT
  5
5CF
  8
0
 10
-105.0
 20
95.400001999999986
 30
0.0
 40
2.5
  1
164
  0
TEXT
  5
5D0
  8
0
 10
-80.900002000000001
 20
-12.4
 30
0.0
 40
2.5
  1
底面通線口
  0
LINE
  5
5D1
  8
0
  6
CONTINUOUS
 10
-96.800003000000004
 20
13.300000000000001
 30
0.0
 11
-81.900002000000001
 21
-13.1
 31
0.0
  0
LINE
  5
5D2
  8
0
  6
CONTINUOUS
 10
-81.900002000000001
 20
-13.1
 30
0.0
 11
-65.599997999999985
 21
-13.1
 31
0.0
  0
LINE
  5
5D3
  8
0
  6
CONTINUOUS
 10
-96.099997999999999
 20
10.800000000000001
 30
0.0
 11
-96.800003000000004
 21
13.300000000000001
 31
0.0
  0
LINE
  5
5D4
  8
0
  6
CONTINUOUS
 10
-96.800003000000004
 20
13.300000000000001
 30
0.0
 11
-94.900002000000001
 21
11.4
 31
0.0
  0
LINE
  5
5D5
  8
0
  6
CONTINUOUS
 10
9.1999999999999993
 20
75.5
 30
0.0
 11
9.1999999999999993
 21
97.0
 31
0.0
  0
LINE
  5
5D6
  8
0
  6
CONTINUOUS
 10
-11.0
 20
25.700001
 30
0.0
 11
-11.0
 21
97.0
 31
0.0
  0
LINE
  5
5D7
  8
0
  6
CONTINUOUS
 10
6.7000000000000002
 20
95.099998000000014
 30
0.0
 11
9.1999999999999993
 21
94.500000000000014
 31
0.0
  0
LINE
  5
5D8
  8
0
  6
CONTINUOUS
 10
9.1999999999999993
 20
94.500000000000014
 30
0.0
 11
6.7000000000000002
 21
93.800003000000004
 31
0.0
  0
LINE
  5
5D9
  8
0
  6
CONTINUOUS
 10
-8.5
 20
93.800003000000004
 30
0.0
 11
-11.0
 21
94.500000000000014
 31
0.0
  0
LINE
  5
5DA
  8
0
  6
CONTINUOUS
 10
-11.0
 20
94.500000000000014
 30
0.0
 11
-8.5
 21
95.099998000000014
 31
0.0
  0
LINE
  5
5DB
  8
0
  6
CONTINUOUS
 10
-11.0
 20
94.500000000000014
 30
0.0
 11
9.1999999999999993
 21
94.500000000000014
 31
0.0
  0
TEXT
  5
5DC
  8
0
 10
-3.7999999999999989
 20
95.5
 30
0.0
 40
2.5
  1
202
  0
LINE
  5
5DD
  8
0
  6
CONTINUOUS
 10
0.8
 20
75.099997999999999
 30
0.0
 11
0.8
 21
89.400002000000001
 31
0.0
  0
LINE
  5
5DE
  8
0
  6
CONTINUOUS
 10
6.7000000000000002
 20
87.599998000000014
 30
0.0
 11
9.1999999999999993
 21
86.900002000000001
 31
0.0
  0
LINE
  5
5DF
  8
0
  6
CONTINUOUS
 10
9.1999999999999993
 20
86.900002000000001
 30
0.0
 11
6.7000000000000002
 21
86.199996999999996
 31
0.0
  0
LINE
  5
5E0
  8
0
  6
CONTINUOUS
 10
3.2999999999999989
 20
86.199996999999996
 30
0.0
 11
0.8
 21
86.900002000000001
 31
0.0
  0
LINE
  5
5E1
  8
0
  6
CONTINUOUS
 10
0.8
 20
86.900002000000001
 30
0.0
 11
3.2999999999999989
 21
87.599998000000014
 31
0.0
  0
LINE
  5
5E2
  8
0
  6
CONTINUOUS
 10
0.8
 20
86.900002000000001
 30
0.0
 11
9.1999999999999993
 21
86.900002000000001
 31
0.0
  0
TEXT
  5
5E3
  8
0
 10
2.5
 20
87.900001999999986
 30
0.0
 40
2.5
  1
84
  0
LINE
  5
5E4
  8
0
  6
CONTINUOUS
 10
95.400001999999986
 20
37.099997999999999
 30
0.0
 11
79.300003000000004
 21
31.700001
 31
0.0
  0
LINE
  5
5E5
  8
0
  6
CONTINUOUS
 10
79.300003000000004
 20
31.700001
 30
0.0
 11
63.799999
 21
31.700001
 31
0.0
  0
LINE
  5
5E6
  8
0
  6
CONTINUOUS
 10
95.900002000000001
 20
70.099997999999999
 30
0.0
 11
95.900002000000001
 21
97.0
 31
0.0
  0
LINE
  5
5E7
  8
0
  6
CONTINUOUS
 10
104.900002
 20
70.099997999999999
 30
0.0
 11
104.900002
 21
97.0
 31
0.0
  0
LINE
  5
5E8
  8
0
  6
CONTINUOUS
 10
98.400002000000001
 20
93.800003000000004
 30
0.0
 11
95.900002000000001
 21
94.500000000000014
 31
0.0
  0
LINE
  5
5E9
  8
0
  6
CONTINUOUS
 10
95.900002000000001
 20
94.500000000000014
 30
0.0
 11
98.400002000000001
 21
95.199996999999996
 31
0.0
  0
LINE
  5
5EA
  8
0
  6
CONTINUOUS
 10
95.900002000000001
 20
94.500000000000014
 30
0.0
 11
104.900002
 21
94.500000000000014
 31
0.0
  0
LINE
  5
5EB
  8
0
  6
CONTINUOUS
 10
102.400002
 20
95.199996999999996
 30
0.0
 11
104.900002
 21
94.500000000000014
 31
0.0
  0
LINE
  5
5EC
  8
0
  6
CONTINUOUS
 10
104.900002
 20
94.500000000000014
 30
0.0
 11
102.400002
 21
93.800003000000004
 31
0.0
  0
TEXT
  5
5ED
  8
0
 10
98.099997999999985
 20
95.5
 30
0.0
 40
2.5
  1
90
  0
LINE
  5
5EE
  8
0
  6
CONTINUOUS
 10
107.400002
 20
67.599997999999999
 30
0.0
 11
127.099998
 21
67.599997999999999
 31
0.0
  0
LINE
  5
5EF
  8
0
  6
CONTINUOUS
 10
107.400002
 20
42.599997999999999
 30
0.0
 11
127.099998
 21
42.599997999999999
 31
0.0
  0
LINE
  5
5F0
  8
0
  6
CONTINUOUS
 10
124.0
 20
65.099997999999999
 30
0.0
 11
124.599998
 21
67.599997999999999
 31
0.0
  0
LINE
  5
5F1
  8
0
  6
CONTINUOUS
 10
124.599998
 20
67.599997999999999
 30
0.0
 11
125.300003
 21
65.099997999999999
 31
0.0
  0
LINE
  5
5F2
  8
0
  6
CONTINUOUS
 10
125.300003
 20
45.099997999999999
 30
0.0
 11
124.599998
 21
42.599997999999999
 31
0.0
  0
LINE
  5
5F3
  8
0
  6
CONTINUOUS
 10
124.599998
 20
42.599997999999999
 30
0.0
 11
124.0
 21
45.099997999999999
 31
0.0
  0
LINE
  5
5F4
  8
0
  6
CONTINUOUS
 10
124.599998
 20
42.599997999999999
 30
0.0
 11
124.599998
 21
67.599997999999999
 31
0.0
  0
TEXT
  5
5F5
  8
0
 10
123.599998
 20
51.5
 30
0.0
 40
2.5
  1
250
 50
90.0
  0
LINE
  5
5F6
  8
0
  6
CONTINUOUS
 10
107.400002
 20
17.600000000000001
 30
0.0
 11
126.900002
 21
17.600000000000001
 31
0.0
  0
LINE
  5
5F7
  8
0
  6
CONTINUOUS
 10
123.800003
 20
40.099997999999999
 30
0.0
 11
124.400002
 21
42.599997999999999
 31
0.0
  0
LINE
  5
5F8
  8
0
  6
CONTINUOUS
 10
124.400002
 20
42.599997999999999
 30
0.0
 11
125.099998
 21
40.099997999999999
 31
0.0
  0
LINE
  5
5F9
  8
0
  6
CONTINUOUS
 10
125.099998
 20
20.100000000000001
 30
0.0
 11
124.400002
 21
17.600000000000001
 31
0.0
  0
LINE
  5
5FA
  8
0
  6
CONTINUOUS
 10
124.400002
 20
17.600000000000001
 30
0.0
 11
123.800003
 21
20.100000000000001
 31
0.0
  0
LINE
  5
5FB
  8
0
  6
CONTINUOUS
 10
124.400002
 20
17.600000000000001
 30
0.0
 11
124.400002
 21
42.599997999999999
 31
0.0
  0
TEXT
  5
5FC
  8
0
 10
123.400002
 20
26.5
 30
0.0
 40
2.5
  1
250
 50
90.0
  0
LINE
  5
5FD
  8
0
  6
CONTINUOUS
 10
89.900002000000001
 20
73.699996999999996
 30
0.0
 11
73.800003000000004
 21
73.699996999999996
 31
0.0
  0
LINE
  5
5FE
  8
0
  6
CONTINUOUS
 10
94.599997999999999
 20
37.700001
 30
0.0
 11
73.800003000000004
 21
37.700001
 31
0.0
  0
LINE
  5
5FF
  8
0
  6
CONTINUOUS
 10
75.599997999999985
 20
71.199996999999996
 30
0.0
 11
76.300003000000004
 21
73.699996999999996
 31
0.0
  0
LINE
  5
600
  8
0
  6
CONTINUOUS
 10
76.300003000000004
 20
73.699996999999996
 30
0.0
 11
76.900002000000001
 21
71.199996999999996
 31
0.0
  0
LINE
  5
601
  8
0
  6
CONTINUOUS
 10
76.900002000000001
 20
40.200000999999993
 30
0.0
 11
76.300003000000004
 21
37.700001
 31
0.0
  0
LINE
  5
602
  8
0
  6
CONTINUOUS
 10
76.300003000000004
 20
37.700001
 30
0.0
 11
75.599997999999985
 21
40.200000999999993
 31
0.0
  0
LINE
  5
603
  8
0
  6
CONTINUOUS
 10
76.300003000000004
 20
37.700001
 30
0.0
 11
76.300003000000004
 21
73.699996999999996
 31
0.0
  0
TEXT
  5
604
  8
0
 10
75.300003000000004
 20
52.5
 30
0.0
 40
2.5
  1
361
 50
90.0
  0
LINE
  5
605
  8
0
  6
CONTINUOUS
 10
103.199997
 20
35.200001
 30
0.0
 11
103.199997
 21
27.700001
 31
0.0
  0
LINE
  5
606
  8
0
  6
CONTINUOUS
 10
97.099997999999999
 20
35.200001
 30
0.0
 11
97.099997999999999
 21
27.700001
 31
0.0
  0
LINE
  5
607
  8
0
  6
CONTINUOUS
 10
105.699997
 20
30.200001
 30
0.0
 11
86.900002000000001
 21
30.200001
 31
0.0
  0
LINE
  5
608
  8
0
  6
CONTINUOUS
 10
105.699997
 20
29.5
 30
0.0
 11
103.199997
 21
30.200001
 31
0.0
  0
LINE
  5
609
  8
0
  6
CONTINUOUS
 10
103.199997
 20
30.200001
 30
0.0
 11
105.699997
 21
30.799999
 31
0.0
  0
LINE
  5
60A
  8
0
  6
CONTINUOUS
 10
94.599997999999999
 20
30.799999
 30
0.0
 11
97.099997999999999
 21
30.200001
 31
0.0
  0
LINE
  5
60B
  8
0
  6
CONTINUOUS
 10
97.099997999999999
 20
30.200001
 30
0.0
 11
94.599997999999999
 21
29.5
 31
0.0
  0
TEXT
  5
60C
  8
0
 10
87.400002000000001
 20
31.200001
 30
0.0
 40
2.5
  1
61
  0
TEXT
  5
60D
  8
0
 10
64.599997999999999
 20
32.400002000000001
 30
0.0
 40
2.5
  1
\U+03A630\U+00D72
  0
LINE
  5
60E
  8
0
  6
CONTINUOUS
 10
93.095298999999983
 20
14.655099999999999
 30
0.0
 11
93.092499000000004
 21
14.6569
 31
0.0
  0
LINE
  5
60F
  8
0
  6
CONTINUOUS
 10
93.123000999999988
 20
14.610300000000001
 30
0.0
 11
93.103896999999989
 21
14.650499999999999
 31
0.0
  0
LINE
  5
610
  8
0
  6
CONTINUOUS
 10
93.103896999999989
 20
14.650499999999999
 30
0.0
 11
93.129997000000003
 21
14.6068
 31
0.0
  0
LINE
  5
611
  8
0
  6
CONTINUOUS
 10
93.093696999999992
 20
14.6569
 30
0.0
 11
93.102303000000006
 21
14.6516
 31
0.0
  0
LINE
  5
612
  8
0
  6
CONTINUOUS
 10
100.99700199999999
 20
67.271300999999994
 30
0.0
 11
100.905998
 21
67.229598999999993
 31
0.0
  0
LINE
  5
613
  8
0
  6
CONTINUOUS
 10
107.68000000000001
 20
14.2621
 30
0.0
 11
107.726997
 21
14.297499999999999
 31
0.0
  0
LINE
  5
614
  8
0
  6
CONTINUOUS
 10
107.726997
 20
14.297499999999999
 30
0.0
 11
107.730003
 21
14.312099999999999
 31
0.0
  0
LINE
  5
615
  8
0
  6
CONTINUOUS
 10
108.495003
 20
13.397600000000001
 30
0.0
 11
108.584
 21
13.4384
 31
0.0
  0
LINE
  5
616
  8
0
  6
CONTINUOUS
 10
108.584
 20
13.4384
 30
0.0
 11
108.614998
 21
13.5175
 31
0.0
  0
LINE
  5
617
  8
0
  6
CONTINUOUS
 10
93.652801999999994
 20
13.3985
 30
0.0
 11
95.970496999999995
 21
13.4016
 31
0.0
  0
LINE
  5
618
  8
0
  6
CONTINUOUS
 10
95.970496999999995
 20
13.4016
 30
0.0
 11
96.147201999999993
 21
13.3985
 31
0.0
  0
LINE
  5
619
  8
0
  6
CONTINUOUS
 10
93.652801999999994
 20
13.3985
 30
0.0
 11
93.553000999999995
 21
13.397600000000001
 31
0.0
  0
LINE
  5
61A
  8
0
  6
CONTINUOUS
 10
93.553000999999995
 20
13.9621
 30
0.0
 11
93.652801999999994
 21
13.962999999999999
 31
0.0
  0
LINE
  5
61B
  8
0
  6
CONTINUOUS
 10
93.635695999999996
 20
13.3871
 30
0.0
 11
93.741095999999999
 21
13.3881
 31
0.0
  0
LINE
  5
61C
  8
0
  6
CONTINUOUS
 10
96.247001999999995
 20
13.397600000000001
 30
0.0
 11
96.147201999999993
 21
13.3985
 31
0.0
  0
LINE
  5
61D
  8
0
  6
CONTINUOUS
 10
96.147201999999993
 20
13.962999999999999
 30
0.0
 11
96.247001999999995
 21
13.9621
 31
0.0
  0
LINE
  5
61E
  8
0
  6
CONTINUOUS
 10
96.147201999999993
 20
13.962999999999999
 30
0.0
 11
93.836403000000004
 21
13.966200000000001
 31
0.0
  0
LINE
  5
61F
  8
0
  6
CONTINUOUS
 10
93.836403000000004
 20
13.966200000000001
 30
0.0
 11
93.652801999999994
 21
13.962999999999999
 31
0.0
  0
LINE
  5
620
  8
0
  6
CONTINUOUS
 10
96.058899000000011
 20
13.3881
 30
0.0
 11
96.164298999999986
 21
13.3871
 31
0.0
  0
LINE
  5
621
  8
0
  6
CONTINUOUS
 10
96.058899000000011
 20
13.3881
 30
0.0
 11
93.901900999999995
 21
13.3912
 31
0.0
  0
LINE
  5
622
  8
0
  6
CONTINUOUS
 10
93.901900999999995
 20
13.3912
 30
0.0
 11
93.741095999999999
 21
13.3881
 31
0.0
  0
LINE
  5
623
  8
0
  6
CONTINUOUS
 10
92.354896999999994
 20
13.3871
 30
0.0
 11
92.266098
 21
13.4275
 31
0.0
  0
LINE
  5
624
  8
0
  6
CONTINUOUS
 10
92.266098
 20
13.4275
 30
0.0
 11
92.235000999999997
 21
13.507
 31
0.0
  0
LINE
  5
625
  8
0
  6
CONTINUOUS
 10
93.172996999999995
 20
14.255100000000001
 30
0.0
 11
93.125397000000007
 21
14.291600000000001
 31
0.0
  0
LINE
  5
626
  8
0
  6
CONTINUOUS
 10
93.125397000000007
 20
14.291600000000001
 30
0.0
 11
93.123000999999988
 21
14.305099999999999
 31
0.0
  0
LINE
  5
627
  8
0
  6
CONTINUOUS
 10
93.046501000000006
 20
14.660299999999999
 30
0.0
 11
92.998901000000004
 21
14.696899999999999
 31
0.0
  0
LINE
  5
628
  8
0
  6
CONTINUOUS
 10
92.998901000000004
 20
14.696899999999999
 30
0.0
 11
92.996498000000003
 21
14.7103
 31
0.0
  0
LINE
  5
629
  8
0
  6
CONTINUOUS
 10
93.095298999999983
 20
14.655099999999999
 30
0.0
 11
93.072997999999998
 21
14.660299999999999
 31
0.0
  0
LINE
  5
62A
  8
0
  6
CONTINUOUS
 10
92.832199000000003
 20
66.573097000000004
 30
0.0
 11
92.856200999999999
 21
66.585800000000006
 31
0.0
  0
LINE
  5
62B
  8
0
  6
CONTINUOUS
 10
100.081001
 20
67.073402000000002
 30
0.0
 11
100.148003
 21
67.178100999999998
 31
0.0
  0
LINE
  5
62C
  8
0
  6
CONTINUOUS
 10
100.148003
 20
67.178100999999998
 30
0.0
 11
100.154999
 21
67.228797999999998
 31
0.0
  0
LINE
  5
62D
  8
0
  6
CONTINUOUS
 10
93.072997999999998
 20
16.253401
 30
0.0
 11
93.095298999999983
 21
16.258600000000001
 31
0.0
  0
LINE
  5
62E
  8
0
  6
CONTINUOUS
 10
92.245498999999995
 20
13.5175
 30
0.0
 11
92.285895999999994
 21
13.428699999999999
 31
0.0
  0
LINE
  5
62F
  8
0
  6
CONTINUOUS
 10
92.285895999999994
 20
13.428699999999999
 30
0.0
 11
92.365402000000003
 21
13.397600000000001
 31
0.0
  0
LINE
  5
630
  8
0
  6
CONTINUOUS
 10
92.235000999999997
 20
73.617203000000003
 30
0.0
 11
92.275497000000001
 21
73.706001000000001
 31
0.0
  0
LINE
  5
631
  8
0
  6
CONTINUOUS
 10
92.275497000000001
 20
73.706001000000001
 30
0.0
 11
92.354896999999994
 21
73.737099000000001
 31
0.0
  0
LINE
  5
632
  8
0
  6
CONTINUOUS
 10
92.830002000000007
 20
73.062201999999999
 30
0.0
 11
92.869697999999985
 21
73.141098
 31
0.0
  0
LINE
  5
633
  8
0
  6
CONTINUOUS
 10
92.869697999999985
 20
73.141098
 30
0.0
 11
92.929901000000001
 21
73.162102000000004
 31
0.0
  0
LINE
  5
634
  8
0
  6
CONTINUOUS
 10
93.123000999999988
 20
72.819098999999994
 30
0.0
 11
93.159499999999994
 21
72.866698999999997
 31
0.0
  0
LINE
  5
635
  8
0
  6
CONTINUOUS
 10
93.159499999999994
 20
72.866698999999997
 30
0.0
 11
93.172996999999995
 21
72.869101999999998
 31
0.0
  0
LINE
  5
636
  8
0
  6
CONTINUOUS
 10
108.02800000000001
 20
64.551102
 30
0.0
 11
108.003998
 21
64.538398999999998
 31
0.0
  0
LINE
  5
637
  8
0
  6
CONTINUOUS
 10
93.129997000000003
 20
14.312099999999999
 30
0.0
 11
93.166495999999995
 21
14.2645
 31
0.0
  0
LINE
  5
638
  8
0
  6
CONTINUOUS
 10
93.166495999999995
 20
14.2645
 30
0.0
 11
93.180000000000007
 21
14.2621
 31
0.0
  0
LINE
  5
639
  8
0
  6
CONTINUOUS
 10
92.850998000000004
 20
14.312099999999999
 30
0.0
 11
92.849197000000004
 21
14.2621
 31
0.0
  0
LINE
  5
63A
  8
0
  6
CONTINUOUS
 10
93.360000999999997
 20
64.351996999999997
 30
0.0
 11
93.317595999999995
 21
64.230498999999995
 31
0.0
  0
LINE
  5
63B
  8
0
  6
CONTINUOUS
 10
93.317595999999995
 20
64.230498999999995
 30
0.0
 11
93.216201999999996
 21
64.1614
 31
0.0
  0
LINE
  5
63C
  8
0
  6
CONTINUOUS
 10
93.216201999999996
 20
64.1614
 30
0.0
 11
93.160103000000007
 21
64.152100000000004
 31
0.0
  0
LINE
  5
63D
  8
0
  6
CONTINUOUS
 10
93.352997000000002
 20
66.765197999999998
 30
0.0
 11
93.310599999999994
 21
66.886702999999997
 31
0.0
  0
LINE
  5
63E
  8
0
  6
CONTINUOUS
 10
93.310599999999994
 20
66.886702999999997
 30
0.0
 11
93.209198000000001
 21
66.955803000000003
 31
0.0
  0
LINE
  5
63F
  8
0
  6
CONTINUOUS
 10
93.209198000000001
 20
66.955803000000003
 30
0.0
 11
93.153098999999997
 21
66.965102999999985
 31
0.0
  0
LINE
  5
640
  8
0
  6
CONTINUOUS
 10
94.728301999999999
 20
72.534797999999995
 30
0.0
 11
94.7286
 21
72.514801000000006
 31
0.0
  0
LINE
  5
641
  8
0
  6
CONTINUOUS
 10
94.931801000000007
 20
72.839302000000004
 30
0.0
 11
94.931395999999992
 21
72.859298999999993
 31
0.0
  0
LINE
  5
642
  8
0
  6
CONTINUOUS
 10
94.926497999999995
 20
26.865601000000002
 30
0.0
 11
94.928200000000004
 21
26.765699000000001
 31
0.0
  0
LINE
  5
643
  8
0
  6
CONTINUOUS
 10
94.728301999999999
 20
72.839302000000004
 30
0.0
 11
94.7286
 21
72.859298999999993
 31
0.0
  0
LINE
  5
644
  8
0
  6
CONTINUOUS
 10
94.931801000000007
 20
72.549201999999994
 30
0.0
 11
94.931395999999992
 21
72.529099000000002
 31
0.0
  0
LINE
  5
645
  8
0
  6
CONTINUOUS
 10
93.129997000000003
 20
16.306899999999999
 30
0.0
 11
93.093696999999992
 21
16.256900999999999
 31
0.0
  0
LINE
  5
646
  8
0
  6
CONTINUOUS
 10
98.930000000000007
 20
72.832603000000006
 30
0.0
 11
98.906799000000007
 21
72.807602000000003
 31
0.0
  0
LINE
  5
647
  8
0
  6
CONTINUOUS
 10
97.910004000000015
 20
14.9308
 30
0.0
 11
97.909203000000005
 21
14.9595
 31
0.0
  0
LINE
  5
648
  8
0
  6
CONTINUOUS
 10
96.878304000000014
 20
72.686203000000006
 30
0.0
 11
96.878601000000003
 21
72.666199000000006
 31
0.0
  0
LINE
  5
649
  8
0
  6
CONTINUOUS
 10
97.08180200000001
 20
72.839302000000004
 30
0.0
 11
97.081397999999993
 21
72.859298999999993
 31
0.0
  0
LINE
  5
64A
  8
0
  6
CONTINUOUS
 10
97.826499999999996
 20
14.0313
 30
0.0
 11
97.827399999999997
 21
13.981400000000001
 31
0.0
  0
LINE
  5
64B
  8
0
  6
CONTINUOUS
 10
97.07650000000001
 20
26.865601000000002
 30
0.0
 11
97.078201000000007
 21
26.765699000000001
 31
0.0
  0
LINE
  5
64C
  8
0
  6
CONTINUOUS
 10
96.878304000000014
 20
72.839302000000004
 30
0.0
 11
96.878601000000003
 21
72.859298999999993
 31
0.0
  0
LINE
  5
64D
  8
0
  6
CONTINUOUS
 10
97.08180200000001
 20
72.700599999999994
 30
0.0
 11
97.081397999999993
 21
72.680495999999991
 31
0.0
  0
LINE
  5
64E
  8
0
  6
CONTINUOUS
 10
101.93000000000001
 20
72.837097
 30
0.0
 11
101.95500199999999
 21
72.862099000000001
 31
0.0
  0
LINE
  5
64F
  8
0
  6
CONTINUOUS
 10
94.731795999999989
 20
26.765699000000001
 30
0.0
 11
94.733497999999983
 21
26.865601000000002
 31
0.0
  0
LINE
  5
650
  8
0
  6
CONTINUOUS
 10
99.326499999999996
 20
25.165600000000001
 30
0.0
 11
99.328201000000007
 21
25.065701000000001
 31
0.0
  0
LINE
  5
651
  8
0
  6
CONTINUOUS
 10
97.874100000000013
 20
14.818300000000001
 30
0.0
 11
97.896102999999997
 21
14.9621
 31
0.0
  0
LINE
  5
652
  8
0
  6
CONTINUOUS
 10
97.023003000000003
 20
14.7568
 30
0.0
 11
96.983597000000003
 21
14.678100000000001
 31
0.0
  0
LINE
  5
653
  8
0
  6
CONTINUOUS
 10
96.983597000000003
 20
14.678100000000001
 30
0.0
 11
96.922996999999995
 21
14.6569
 31
0.0
  0
LINE
  5
654
  8
0
  6
CONTINUOUS
 10
96.881798000000003
 20
26.765699000000001
 30
0.0
 11
96.883499
 21
26.865601000000002
 31
0.0
  0
LINE
  5
655
  8
0
  6
CONTINUOUS
 10
92.849296999999993
 20
13.981400000000001
 30
0.0
 11
92.850998000000004
 21
14.0313
 31
0.0
  0
LINE
  5
656
  8
0
  6
CONTINUOUS
 10
108.011002
 20
14.2621
 30
0.0
 11
108.00900300000001
 21
14.312099999999999
 31
0.0
  0
LINE
  5
657
  8
0
  6
CONTINUOUS
 10
100.70500199999999
 20
67.228797999999998
 30
0.0
 11
100.74400300000001
 21
67.111098999999996
 31
0.0
  0
LINE
  5
658
  8
0
  6
CONTINUOUS
 10
100.74400300000001
 20
67.111098999999996
 30
0.0
 11
100.778999
 21
67.073402000000002
 31
0.0
  0
LINE
  5
659
  8
0
  6
CONTINUOUS
 10
101.726997
 20
25.165600000000001
 30
0.0
 11
101.727997
 21
25.065701000000001
 31
0.0
  0
LINE
  5
65A
  8
0
  6
CONTINUOUS
 10
99.131798000000003
 20
25.065701000000001
 30
0.0
 11
99.133499
 21
25.165600000000001
 31
0.0
  0
LINE
  5
65B
  8
0
  6
CONTINUOUS
 10
103.976997
 20
25.165600000000001
 30
0.0
 11
103.977997
 21
25.065701000000001
 31
0.0
  0
LINE
  5
65C
  8
0
  6
CONTINUOUS
 10
107.5
 20
66.772201999999993
 30
0.0
 11
107.541
 21
66.892501999999993
 31
0.0
  0
LINE
  5
65D
  8
0
  6
CONTINUOUS
 10
107.541
 20
66.892501999999993
 30
0.0
 11
107.64299800000001
 21
66.962502000000001
 31
0.0
  0
LINE
  5
65E
  8
0
  6
CONTINUOUS
 10
107.64299800000001
 20
66.962502000000001
 30
0.0
 11
107.699997
 21
66.972099
 31
0.0
  0
LINE
  5
65F
  8
0
  6
CONTINUOUS
 10
107.730003
 20
72.454398999999995
 30
0.0
 11
107.69499999999999
 21
72.407203999999993
 31
0.0
  0
LINE
  5
660
  8
0
  6
CONTINUOUS
 10
107.69499999999999
 20
72.407203999999993
 30
0.0
 11
107.67600299999999
 21
72.404601999999997
 31
0.0
  0
LINE
  5
661
  8
0
  6
CONTINUOUS
 10
101.531998
 20
25.065701000000001
 30
0.0
 11
101.53299699999999
 21
25.165600000000001
 31
0.0
  0
LINE
  5
662
  8
0
  6
CONTINUOUS
 10
103.781998
 20
25.065701000000001
 30
0.0
 11
103.78299699999999
 21
25.165600000000001
 31
0.0
  0
LINE
  5
663
  8
0
  6
CONTINUOUS
 10
97.910103000000007
 20
14.9621
 30
0.0
 11
97.884597999999997
 21
14.8078
 31
0.0
  0
LINE
  5
664
  8
0
  6
CONTINUOUS
 10
108.00900300000001
 20
14.0313
 30
0.0
 11
108.011002
 21
13.981400000000001
 31
0.0
  0
LINE
  5
665
  8
0
  6
CONTINUOUS
 10
106.126999
 20
25.165600000000001
 30
0.0
 11
106.12799800000001
 21
25.065701000000001
 31
0.0
  0
LINE
  5
666
  8
0
  6
CONTINUOUS
 10
107.432999
 20
14.0313
 30
0.0
 11
107.432999
 21
13.981400000000001
 31
0.0
  0
LINE
  5
667
  8
0
  6
CONTINUOUS
 10
105.931999
 20
25.065701000000001
 30
0.0
 11
105.932999
 21
25.165600000000001
 31
0.0
  0
LINE
  5
668
  8
0
  6
CONTINUOUS
 10
92.996498000000003
 20
15.0398
 30
0.0
 11
93.037803999999994
 21
15.062099999999999
 31
0.0
  0
LINE
  5
669
  8
0
  6
CONTINUOUS
 10
107.50700399999999
 20
64.359001000000006
 30
0.0
 11
107.547997
 21
64.238701000000006
 31
0.0
  0
LINE
  5
66A
  8
0
  6
CONTINUOUS
 10
107.547997
 20
64.238701000000006
 30
0.0
 11
107.649002
 21
64.168998999999999
 31
0.0
  0
LINE
  5
66B
  8
0
  6
CONTINUOUS
 10
107.649002
 20
64.168998999999999
 30
0.0
 11
107.70700100000001
 21
64.159103000000002
 31
0.0
  0
LINE
  5
66C
  8
0
  6
CONTINUOUS
 10
107.73699999999999
 20
14.305099999999999
 30
0.0
 11
107.702003
 21
14.2578
 31
0.0
  0
LINE
  5
66D
  8
0
  6
CONTINUOUS
 10
107.702003
 20
14.2578
 30
0.0
 11
107.68699599999999
 21
14.255100000000001
 31
0.0
  0
LINE
  5
66E
  8
0
  6
CONTINUOUS
 10
108.614998
 20
73.606696999999997
 30
0.0
 11
108.574997
 21
73.694800999999998
 31
0.0
  0
LINE
  5
66F
  8
0
  6
CONTINUOUS
 10
108.574997
 20
73.694800999999998
 30
0.0
 11
108.495003
 21
73.726601000000002
 31
0.0
  0
LINE
  5
670
  8
0
  6
CONTINUOUS
 10
108.625
 20
13.507
 30
0.0
 11
108.585999
 21
13.4192
 31
0.0
  0
LINE
  5
671
  8
0
  6
CONTINUOUS
 10
108.585999
 20
13.4192
 30
0.0
 11
108.504997
 21
13.3871
 31
0.0
  0
LINE
  5
672
  8
0
  6
CONTINUOUS
 10
93.095298999999983
 20
16.258600000000001
 30
0.0
 11
93.123000999999988
 21
16.3034
 31
0.0
  0
LINE
  5
673
  8
0
  6
CONTINUOUS
 10
92.856200999999999
 20
64.538398999999998
 30
0.0
 11
92.832199000000003
 21
64.551102
 31
0.0
  0
LINE
  5
674
  8
0
  6
CONTINUOUS
 10
93.153098999999997
 20
64.159103000000002
 30
0.0
 11
93.274001999999996
 21
64.200995999999989
 31
0.0
  0
LINE
  5
675
  8
0
  6
CONTINUOUS
 10
93.274001999999996
 20
64.200995999999989
 30
0.0
 11
93.343399000000005
 21
64.301902999999996
 31
0.0
  0
LINE
  5
676
  8
0
  6
CONTINUOUS
 10
93.343399000000005
 20
64.301902999999996
 30
0.0
 11
93.352997000000002
 21
64.359001000000006
 31
0.0
  0
LINE
  5
677
  8
0
  6
CONTINUOUS
 10
107.960999
 20
64.453400000000002
 30
0.0
 11
108.011002
 21
64.454200999999983
 31
0.0
  0
LINE
  5
678
  8
0
  6
CONTINUOUS
 10
92.899199999999993
 20
64.453400000000002
 30
0.0
 11
92.849296999999993
 21
64.454200999999983
 31
0.0
  0
LINE
  5
679
  8
0
  6
CONTINUOUS
 10
107.699997
 20
64.152100000000004
 30
0.0
 11
107.579002
 21
64.194000000000003
 31
0.0
  0
LINE
  5
67A
  8
0
  6
CONTINUOUS
 10
107.579002
 20
64.194000000000003
 30
0.0
 11
107.510002
 21
64.292900000000003
 31
0.0
  0
LINE
  5
67B
  8
0
  6
CONTINUOUS
 10
107.510002
 20
64.292900000000003
 30
0.0
 11
107.5
 21
64.351996999999997
 31
0.0
  0
LINE
  5
67C
  8
0
  6
CONTINUOUS
 10
99.849997999999999
 20
67.277100000000004
 30
0.0
 11
99.953598000000014
 21
67.229598999999993
 31
0.0
  0
LINE
  5
67D
  8
0
  6
CONTINUOUS
 10
107.70700100000001
 20
66.965102999999985
 30
0.0
 11
107.585999
 21
66.923203000000001
 31
0.0
  0
LINE
  5
67E
  8
0
  6
CONTINUOUS
 10
107.585999
 20
66.923203000000001
 30
0.0
 11
107.516998
 21
66.824303
 31
0.0
  0
LINE
  5
67F
  8
0
  6
CONTINUOUS
 10
107.516998
 20
66.824303
 30
0.0
 11
107.50700399999999
 21
66.765197999999998
 31
0.0
  0
LINE
  5
680
  8
0
  6
CONTINUOUS
 10
92.899199999999993
 20
66.670799000000002
 30
0.0
 11
92.849296999999993
 21
66.669997999999993
 31
0.0
  0
LINE
  5
681
  8
0
  6
CONTINUOUS
 10
107.960999
 20
66.670799000000002
 30
0.0
 11
108.011002
 21
66.669997999999993
 31
0.0
  0
LINE
  5
682
  8
0
  6
CONTINUOUS
 10
93.160103000000007
 20
66.972099
 30
0.0
 11
93.281600999999995
 21
66.929703000000003
 31
0.0
  0
LINE
  5
683
  8
0
  6
CONTINUOUS
 10
93.281600999999995
 20
66.929703000000003
 30
0.0
 11
93.350699999999989
 21
66.828299999999999
 31
0.0
  0
LINE
  5
684
  8
0
  6
CONTINUOUS
 10
93.350699999999989
 20
66.828299999999999
 30
0.0
 11
93.360000999999997
 21
66.772201999999993
 31
0.0
  0
LINE
  5
685
  8
0
  6
CONTINUOUS
 10
108.003998
 20
66.585800000000006
 30
0.0
 11
108.02800000000001
 21
66.573097000000004
 31
0.0
  0
LINE
  5
686
  8
0
  6
CONTINUOUS
 10
92.365402000000003
 20
73.726601000000002
 30
0.0
 11
92.276604000000006
 21
73.686203000000006
 31
0.0
  0
LINE
  5
687
  8
0
  6
CONTINUOUS
 10
92.276604000000006
 20
73.686203000000006
 30
0.0
 11
92.245498999999995
 21
73.606696999999997
 31
0.0
  0
LINE
  5
688
  8
0
  6
CONTINUOUS
 10
93.183502000000004
 20
72.404601999999997
 30
0.0
 11
93.133399999999995
 21
72.437896999999992
 31
0.0
  0
LINE
  5
689
  8
0
  6
CONTINUOUS
 10
93.133399999999995
 20
72.437896999999992
 30
0.0
 11
93.129997000000003
 21
72.454398999999995
 31
0.0
  0
LINE
  5
68A
  8
0
  6
CONTINUOUS
 10
107.93000000000001
 20
73.162102000000004
 30
0.0
 11
108.00900300000001
 21
73.122703999999999
 31
0.0
  0
LINE
  5
68B
  8
0
  6
CONTINUOUS
 10
108.00900300000001
 20
73.122703999999999
 30
0.0
 11
108.029999
 21
73.062201999999999
 31
0.0
  0
LINE
  5
68C
  8
0
  6
CONTINUOUS
 10
108.504997
 20
73.737099000000001
 30
0.0
 11
108.594002
 21
73.696999000000005
 31
0.0
  0
LINE
  5
68D
  8
0
  6
CONTINUOUS
 10
108.594002
 20
73.696999000000005
 30
0.0
 11
108.625
 21
73.617203000000003
 31
0.0
  0
LINE
  5
68E
  8
0
  6
CONTINUOUS
 10
107.68699599999999
 20
72.869101999999998
 30
0.0
 11
107.73400100000001
 21
72.833602999999997
 31
0.0
  0
LINE
  5
68F
  8
0
  6
CONTINUOUS
 10
107.73400100000001
 20
72.833602999999997
 30
0.0
 11
107.73699999999999
 21
72.819098999999994
 31
0.0
  0
LINE
  5
690
  8
0
  6
CONTINUOUS
 10
98.904999000000004
 20
72.862099000000001
 30
0.0
 11
98.930000000000007
 21
72.837097
 31
0.0
  0
LINE
  5
691
  8
0
  6
CONTINUOUS
 10
101.953003
 20
72.807602000000003
 30
0.0
 11
101.93000000000001
 21
72.832603000000006
 31
0.0
  0
LINE
  5
692
  8
0
  6
CONTINUOUS
 10
-101.473
 20
12.491
 30
0.0
 11
-101.334
 21
12.537000000000001
 31
0.0
  0
LINE
  5
693
  8
0
  6
CONTINUOUS
 10
-101.334
 20
12.537000000000001
 30
0.0
 11
-101.239998
 21
12.661300000000001
 31
0.0
  0
LINE
  5
694
  8
0
  6
CONTINUOUS
 10
-101.239998
 20
12.661300000000001
 30
0.0
 11
-101.220001
 21
12.7033
 31
0.0
  0
LINE
  5
695
  8
0
  6
CONTINUOUS
 10
-101.56300400000001
 20
12.4306
 30
0.0
 11
-101.73200199999999
 21
12.4138
 31
0.0
  0
LINE
  5
696
  8
0
  6
CONTINUOUS
 10
-101.621002
 20
12.494899999999999
 30
0.0
 11
-101.44899700000001
 21
12.536300000000001
 31
0.0
  0
LINE
  5
697
  8
0
  6
CONTINUOUS
 10
-101.44899700000001
 20
12.536300000000001
 30
0.0
 11
-101.351997
 21
12.642899999999999
 31
0.0
  0
LINE
  5
698
  8
0
  6
CONTINUOUS
 10
-101.351997
 20
12.642899999999999
 30
0.0
 11
-101.317001
 21
12.710100000000001
 31
0.0
  0
LINE
  5
699
  8
0
  6
CONTINUOUS
 10
-103.149002
 20
12.4847
 30
0.0
 11
-102.90100099999999
 21
12.4992
 31
0.0
  0
LINE
  5
69A
  8
0
  6
CONTINUOUS
 10
-101.791
 20
12.366199999999999
 30
0.0
 11
-101.644997
 21
12.386699999999999
 31
0.0
  0
LINE
  5
69B
  8
0
  6
CONTINUOUS
 10
-101.83699799999999
 20
12.428699999999999
 30
0.0
 11
-101.623001
 21
12.441700000000001
 31
0.0
  0
LINE
  5
69C
  8
0
  6
CONTINUOUS
 10
-102.90100099999999
 20
12.4992
 30
0.0
 11
-102.415001
 21
12.5113
 31
0.0
  0
LINE
  5
69D
  8
0
  6
CONTINUOUS
 10
-101.878998
 20
12.4992
 30
0.0
 11
-102.364998
 21
12.5113
 31
0.0
  0
LINE
  5
69E
  8
0
  6
CONTINUOUS
 10
-101.878998
 20
12.4992
 30
0.0
 11
-101.63099699999999
 21
12.4847
 31
0.0
  0
LINE
  5
69F
  8
0
  6
CONTINUOUS
 10
-103.25599699999999
 20
12.488099999999999
 30
0.0
 11
-103.42600299999999
 21
12.5288
 31
0.0
  0
LINE
  5
6A0
  8
0
  6
CONTINUOUS
 10
-103.42600299999999
 20
12.5288
 30
0.0
 11
-103.525002
 21
12.6366
 31
0.0
  0
LINE
  5
6A1
  8
0
  6
CONTINUOUS
 10
-103.525002
 20
12.6366
 30
0.0
 11
-103.55999799999999
 21
12.7033
 31
0.0
  0
LINE
  5
6A2
  8
0
  6
CONTINUOUS
 10
-103.047997
 20
12.4138
 30
0.0
 11
-103.216003
 21
12.4306
 31
0.0
  0
LINE
  5
6A3
  8
0
  6
CONTINUOUS
 10
-103.25700399999999
 20
12.4534
 30
0.0
 11
-102.964996
 21
12.4297
 31
0.0
  0
LINE
  5
6A4
  8
0
  6
CONTINUOUS
 10
-102.396004
 20
12.7211
 30
0.0
 11
-102.385002
 21
12.7234
 31
0.0
  0
LINE
  5
6A5
  8
0
  6
CONTINUOUS
 10
-103.55999799999999
 20
12.7033
 30
0.0
 11
-103.59200300000001
 21
12.6943
 31
0.0
  0
LINE
  5
6A6
  8
0
  6
CONTINUOUS
 10
-101.424004
 20
12.448399999999999
 30
0.0
 11
-101.36900300000001
 21
12.460900000000001
 31
0.0
  0
LINE
  5
6A7
  8
0
  6
CONTINUOUS
 10
-98.792000000000002
 20
13.6213
 30
0.0
 11
-98.341796999999985
 21
13.679500000000001
 31
0.0
  0
LINE
  5
6A8
  8
0
  6
CONTINUOUS
 10
-94.314903000000001
 20
13.3871
 30
0.0
 11
-94.226096999999996
 21
13.4275
 31
0.0
  0
LINE
  5
6A9
  8
0
  6
CONTINUOUS
 10
-94.226096999999996
 20
13.4275
 30
0.0
 11
-94.194999999999993
 21
13.507
 31
0.0
  0
LINE
  5
6AA
  8
0
  6
CONTINUOUS
 10
-103.462997
 20
12.710100000000001
 30
0.0
 11
-103.55999799999999
 21
12.7033
 31
0.0
  0
LINE
  5
6AB
  8
0
  6
CONTINUOUS
 10
-98.018897999999993
 20
13.3881
 30
0.0
 11
-98.124297999999996
 21
13.3871
 31
0.0
  0
LINE
  5
6AC
  8
0
  6
CONTINUOUS
 10
-109.81199599999999
 20
13.388299999999999
 30
0.0
 11
-109.762001
 21
13.3926
 31
0.0
  0
LINE
  5
6AD
  8
0
  6
CONTINUOUS
 10
-102.415001
 20
12.723100000000001
 30
0.0
 11
-103.462997
 21
12.710100000000001
 31
0.0
  0
LINE
  5
6AE
  8
0
  6
CONTINUOUS
 10
-95.595703
 20
13.3871
 30
0.0
 11
-95.701103000000003
 21
13.3881
 31
0.0
  0
LINE
  5
6AF
  8
0
  6
CONTINUOUS
 10
-102.364998
 20
12.723100000000001
 30
0.0
 11
-101.220001
 21
12.7033
 31
0.0
  0
LINE
  5
6B0
  8
0
  6
CONTINUOUS
 10
-95.581299000000001
 20
13.6951
 30
0.0
 11
-96.843696999999992
 21
13.732799999999999
 31
0.0
  0
LINE
  5
6B1
  8
0
  6
CONTINUOUS
 10
-96.843696999999992
 20
13.732799999999999
 30
0.0
 11
-98.105498999999995
 21
13.697100000000001
 31
0.0
  0
LINE
  5
6B2
  8
0
  6
CONTINUOUS
 10
-98.105498999999995
 20
13.697100000000001
 30
0.0
 11
-98.138701999999995
 21
13.6951
 31
0.0
  0
LINE
  5
6B3
  8
0
  6
CONTINUOUS
 10
-95.378097999999994
 20
13.679500000000001
 30
0.0
 11
-95.015998999999994
 21
13.6372
 31
0.0
  0
LINE
  5
6B4
  8
0
  6
CONTINUOUS
 10
-110.464996
 20
13.388299999999999
 30
0.0
 11
-110.55300099999999
 21
13.4284
 31
0.0
  0
LINE
  5
6B5
  8
0
  6
CONTINUOUS
 10
-110.55300099999999
 20
13.4284
 30
0.0
 11
-110.58200100000001
 21
13.485099999999999
 31
0.0
  0
LINE
  5
6B6
  8
0
  6
CONTINUOUS
 10
-101.489998
 20
12.4657
 30
0.0
 11
-101.485001
 21
12.4643
 31
0.0
  0
LINE
  5
6B7
  8
0
  6
CONTINUOUS
 10
-101.220001
 20
12.7033
 30
0.0
 11
-101.18800400000001
 21
12.6943
 31
0.0
  0
LINE
  5
6B8
  8
0
  6
CONTINUOUS
 10
-103.41100299999999
 20
12.460900000000001
 30
0.0
 11
-103.356003
 21
12.448399999999999
 31
0.0
  0
LINE
  5
6B9
  8
0
  6
CONTINUOUS
 10
-102.415001
 20
12.8383
 30
0.0
 11
-102.396004
 21
12.836600000000001
 31
0.0
  0
LINE
  5
6BA
  8
0
  6
CONTINUOUS
 10
-103.13400300000001
 20
12.386699999999999
 30
0.0
 11
-102.987999
 21
12.366199999999999
 31
0.0
  0
LINE
  5
6BB
  8
0
  6
CONTINUOUS
 10
-103.297997
 20
12.443199999999999
 30
0.0
 11
-103.306999
 21
12.446099999999999
 31
0.0
  0
LINE
  5
6BC
  8
0
  6
CONTINUOUS
 10
-101.485001
 20
12.4643
 30
0.0
 11
-101.47199999999999
 21
12.4598
 31
0.0
  0
LINE
  5
6BD
  8
0
  6
CONTINUOUS
 10
-103.441002
 20
12.471399999999999
 30
0.0
 11
-103.422997
 21
12.464700000000001
 31
0.0
  0
LINE
  5
6BE
  8
0
  6
CONTINUOUS
 10
-101.18800400000001
 20
12.6943
 30
0.0
 11
-101.139999
 21
12.6622
 31
0.0
  0
LINE
  5
6BF
  8
0
  6
CONTINUOUS
 10
-103.236
 20
12.432399999999999
 30
0.0
 11
-103.14099899999999
 21
12.3887
 31
0.0
  0
LINE
  5
6C0
  8
0
  6
CONTINUOUS
 10
-97.964798000000002
 20
15.831799999999999
 30
0.0
 11
-97.886002000000005
 21
15.8714
 31
0.0
  0
LINE
  5
6C1
  8
0
  6
CONTINUOUS
 10
-97.886002000000005
 20
15.8714
 30
0.0
 11
-97.864998000000014
 21
15.9316
 31
0.0
  0
LINE
  5
6C2
  8
0
  6
CONTINUOUS
 10
-104.42600299999999
 20
17.026399999999999
 30
0.0
 11
-104.575996
 21
17.067399999999999
 31
0.0
  0
LINE
  5
6C3
  8
0
  6
CONTINUOUS
 10
-104.575996
 20
17.067399999999999
 30
0.0
 11
-104.682999
 21
17.173200999999999
 31
0.0
  0
LINE
  5
6C4
  8
0
  6
CONTINUOUS
 10
-104.682999
 20
17.173200999999999
 30
0.0
 11
-104.724998
 21
17.318701000000001
 31
0.0
  0
LINE
  5
6C5
  8
0
  6
CONTINUOUS
 10
-104.724998
 20
17.318701000000001
 30
0.0
 11
-104.725998
 21
17.326401000000001
 31
0.0
  0
LINE
  5
6C6
  8
0
  6
CONTINUOUS
 10
-104.42600299999999
 20
16.549101
 30
0.0
 11
-104.685997
 21
16.596001000000001
 31
0.0
  0
LINE
  5
6C7
  8
0
  6
CONTINUOUS
 10
-104.685997
 20
16.596001000000001
 30
0.0
 11
-104.902
 21
16.714701000000002
 31
0.0
  0
LINE
  5
6C8
  8
0
  6
CONTINUOUS
 10
-104.902
 20
16.714701000000002
 30
0.0
 11
-105.067001
 21
16.890698999999991
 31
0.0
  0
LINE
  5
6C9
  8
0
  6
CONTINUOUS
 10
-105.067001
 20
16.890698999999991
 30
0.0
 11
-105.170998
 21
17.111999999999998
 31
0.0
  0
LINE
  5
6CA
  8
0
  6
CONTINUOUS
 10
-105.170998
 20
17.111999999999998
 30
0.0
 11
-105.203003
 21
17.326401000000001
 31
0.0
  0
LINE
  5
6CB
  8
0
  6
CONTINUOUS
 10
-105.51599899999999
 20
15.9033
 30
0.0
 11
-105.568001
 21
15.9176
 31
0.0
  0
LINE
  5
6CC
  8
0
  6
CONTINUOUS
 10
-106.828003
 20
15.8187
 30
0.0
 11
-106.906998
 21
15.857699999999999
 31
0.0
  0
LINE
  5
6CD
  8
0
  6
CONTINUOUS
 10
-106.906998
 20
15.857699999999999
 30
0.0
 11
-106.92800099999999
 21
15.9185
 31
0.0
  0
LINE
  5
6CE
  8
0
  6
CONTINUOUS
 10
-95.015998999999994
 20
13.6372
 30
0.0
 11
-94.780097999999995
 21
13.5718
 31
0.0
  0
LINE
  5
6CF
  8
0
  6
CONTINUOUS
 10
-94.780097999999995
 20
13.5718
 30
0.0
 11
-94.760299999999987
 21
13.5525
 31
0.0
  0
LINE
  5
6D0
  8
0
  6
CONTINUOUS
 10
-105.41799899999999
 20
13.3926
 30
0.0
 11
-105.36799600000001
 21
13.388299999999999
 31
0.0
  0
LINE
  5
6D1
  8
0
  6
CONTINUOUS
 10
-103.30999799999999
 20
12.4476
 30
0.0
 11
-103.31500200000001
 21
12.453200000000001
 31
0.0
  0
LINE
  5
6D2
  8
0
  6
CONTINUOUS
 10
-105.541
 20
13.700799999999999
 30
0.0
 11
-105.675003
 21
13.7578
 31
0.0
  0
LINE
  5
6D3
  8
0
  6
CONTINUOUS
 10
-105.675003
 20
13.7578
 30
0.0
 11
-106.268997
 21
13.831300000000001
 31
0.0
  0
LINE
  5
6D4
  8
0
  6
CONTINUOUS
 10
-106.268997
 20
13.831300000000001
 30
0.0
 11
-107.470001
 21
13.8733
 31
0.0
  0
LINE
  5
6D5
  8
0
  6
CONTINUOUS
 10
-107.470001
 20
13.8733
 30
0.0
 11
-108.74299600000001
 21
13.842499999999999
 31
0.0
  0
LINE
  5
6D6
  8
0
  6
CONTINUOUS
 10
-108.74299600000001
 20
13.842499999999999
 30
0.0
 11
-109.445999
 21
13.77
 31
0.0
  0
LINE
  5
6D7
  8
0
  6
CONTINUOUS
 10
-109.445999
 20
13.77
 30
0.0
 11
-109.628998
 21
13.710100000000001
 31
0.0
  0
LINE
  5
6D8
  8
0
  6
CONTINUOUS
 10
-109.628998
 20
13.710100000000001
 30
0.0
 11
-109.639
 21
13.700799999999999
 31
0.0
  0
LINE
  5
6D9
  8
0
  6
CONTINUOUS
 10
-100.353996
 20
20.3978
 30
0.0
 11
-100.203003
 21
20.356300000000001
 31
0.0
  0
LINE
  5
6DA
  8
0
  6
CONTINUOUS
 10
-100.203003
 20
20.356300000000001
 30
0.0
 11
-100.096001
 21
20.249399
 31
0.0
  0
LINE
  5
6DB
  8
0
  6
CONTINUOUS
 10
-100.096001
 20
20.249399
 30
0.0
 11
-100.054001
 21
20.100401000000002
 31
0.0
  0
LINE
  5
6DC
  8
0
  6
CONTINUOUS
 10
-100.054001
 20
20.100401000000002
 30
0.0
 11
-100.054001
 21
20.097798999999998
 31
0.0
  0
LINE
  5
6DD
  8
0
  6
CONTINUOUS
 10
-100.353996
 20
20.875098999999999
 30
0.0
 11
-100.096001
 21
20.828899
 31
0.0
  0
LINE
  5
6DE
  8
0
  6
CONTINUOUS
 10
-100.096001
 20
20.828899
 30
0.0
 11
-99.879401999999999
 21
20.710799999999999
 31
0.0
  0
LINE
  5
6DF
  8
0
  6
CONTINUOUS
 10
-99.879401999999999
 20
20.710799999999999
 30
0.0
 11
-99.711403000000004
 21
20.531400999999999
 31
0.0
  0
LINE
  5
6E0
  8
0
  6
CONTINUOUS
 10
-99.711403000000004
 20
20.531400999999999
 30
0.0
 11
-99.608597000000003
 21
20.309601000000001
 31
0.0
  0
LINE
  5
6E1
  8
0
  6
CONTINUOUS
 10
-99.608597000000003
 20
20.309601000000001
 30
0.0
 11
-99.577003000000005
 21
20.097798999999998
 31
0.0
  0
LINE
  5
6E2
  8
0
  6
CONTINUOUS
 10
-102.41999800000001
 20
23.3004
 30
0.0
 11
-102.431999
 21
23.296900000000001
 31
0.0
  0
LINE
  5
6E3
  8
0
  6
CONTINUOUS
 10
-102.389999
 20
24.437201000000002
 30
0.0
 11
-102.08899700000001
 21
24.481400000000001
 31
0.0
  0
LINE
  5
6E4
  8
0
  6
CONTINUOUS
 10
-102.08899700000001
 20
24.481400000000001
 30
0.0
 11
-101.92800099999999
 21
24.567800999999999
 31
0.0
  0
LINE
  5
6E5
  8
0
  6
CONTINUOUS
 10
-101.92800099999999
 20
24.567800999999999
 30
0.0
 11
-101.855003
 21
24.681999000000001
 31
0.0
  0
LINE
  5
6E6
  8
0
  6
CONTINUOUS
 10
-101.855003
 20
24.681999000000001
 30
0.0
 11
-101.839996
 21
24.748899000000002
 31
0.0
  0
LINE
  5
6E7
  8
0
  6
CONTINUOUS
 10
-102.41999800000001
 20
23.3004
 30
0.0
 11
-102.75900300000001
 21
23.366301
 31
0.0
  0
LINE
  5
6E8
  8
0
  6
CONTINUOUS
 10
-102.75900300000001
 20
23.366301
 30
0.0
 11
-102.97399900000001
 21
23.475100000000001
 31
0.0
  0
LINE
  5
6E9
  8
0
  6
CONTINUOUS
 10
-102.97399900000001
 20
23.475100000000001
 30
0.0
 11
-103.144997
 21
23.650499
 31
0.0
  0
LINE
  5
6EA
  8
0
  6
CONTINUOUS
 10
-103.144997
 20
23.650499
 30
0.0
 11
-103.16999800000001
 21
23.685300999999999
 31
0.0
  0
LINE
  5
6EB
  8
0
  6
CONTINUOUS
 10
-102.398003
 20
22.9072
 30
0.0
 11
-102.406998
 21
22.914000000000001
 31
0.0
  0
LINE
  5
6EC
  8
0
  6
CONTINUOUS
 10
-103.613998
 20
12.6111
 30
0.0
 11
-103.501999
 21
12.4961
 31
0.0
  0
LINE
  5
6ED
  8
0
  6
CONTINUOUS
 10
-103.501999
 20
12.4961
 30
0.0
 11
-103.48699999999999
 21
12.4877
 31
0.0
  0
LINE
  5
6EE
  8
0
  6
CONTINUOUS
 10
-102.94499999999999
 20
26.371700000000001
 30
0.0
 11
-103.129997
 21
26.313299000000001
 31
0.0
  0
LINE
  5
6EF
  8
0
  6
CONTINUOUS
 10
-102.389999
 20
25.892401
 30
0.0
 11
-102.14299800000001
 21
25.838498999999999
 31
0.0
  0
LINE
  5
6F0
  8
0
  6
CONTINUOUS
 10
-102.14299800000001
 20
25.838498999999999
 30
0.0
 11
-101.96700300000001
 21
25.726101
 31
0.0
  0
LINE
  5
6F1
  8
0
  6
CONTINUOUS
 10
-101.96700300000001
 20
25.726101
 30
0.0
 11
-101.864998
 21
25.579398999999999
 31
0.0
  0
LINE
  5
6F2
  8
0
  6
CONTINUOUS
 10
-101.864998
 20
25.579398999999999
 30
0.0
 11
-101.839996
 21
25.492100000000001
 31
0.0
  0
LINE
  5
6F3
  8
0
  6
CONTINUOUS
 10
-101.839996
 20
26.372900000000001
 30
0.0
 11
-102.30500000000001
 21
26.433900999999999
 31
0.0
  0
LINE
  5
6F4
  8
0
  6
CONTINUOUS
 10
-102.30500000000001
 20
26.433900999999999
 30
0.0
 11
-102.725998
 21
26.410699999999999
 31
0.0
  0
LINE
  5
6F5
  8
0
  6
CONTINUOUS
 10
-102.725998
 20
26.410699999999999
 30
0.0
 11
-102.94000200000001
 21
26.372800999999999
 31
0.0
  0
LINE
  5
6F6
  8
0
  6
CONTINUOUS
 10
-101.710999
 20
23.916201000000001
 30
0.0
 11
-101.736
 21
23.9587
 31
0.0
  0
LINE
  5
6F7
  8
0
  6
CONTINUOUS
 10
-102.33699799999999
 20
23.289801000000001
 30
0.0
 11
-102.35900100000001
 21
23.300599999999999
 31
0.0
  0
LINE
  5
6F8
  8
0
  6
CONTINUOUS
 10
-103.462997
 20
12.710100000000001
 30
0.0
 11
-103.35900100000001
 21
12.5573
 31
0.0
  0
LINE
  5
6F9
  8
0
  6
CONTINUOUS
 10
-103.35900100000001
 20
12.5573
 30
0.0
 11
-103.230003
 21
12.503
 31
0.0
  0
LINE
  5
6FA
  8
0
  6
CONTINUOUS
 10
-103.230003
 20
12.503
 30
0.0
 11
-103.158997
 21
12.494899999999999
 31
0.0
  0
LINE
  5
6FB
  8
0
  6
CONTINUOUS
 10
-110.584999
 20
13.507
 30
0.0
 11
-110.545998
 21
13.4192
 31
0.0
  0
LINE
  5
6FC
  8
0
  6
CONTINUOUS
 10
-110.545998
 20
13.4192
 30
0.0
 11
-110.464996
 21
13.3871
 31
0.0
  0
LINE
  5
6FD
  8
0
  6
CONTINUOUS
 10
-100.666
 20
27.639199999999999
 30
0.0
 11
-100.66100299999999
 21
27.642199999999999
 31
0.0
  0
LINE
  5
6FE
  8
0
  6
CONTINUOUS
 10
-105.442001
 20
29.085501000000001
 30
0.0
 11
-105.391998
 21
29.085899000000001
 31
0.0
  0
LINE
  5
6FF
  8
0
  6
CONTINUOUS
 10
-99.286498999999992
 20
29.085501000000001
 30
0.0
 11
-99.186897000000016
 21
29.086399
 31
0.0
  0
LINE
  5
700
  8
0
  6
CONTINUOUS
 10
-105.578003
 20
29.078500999999999
 30
0.0
 11
-105.599998
 21
29.078800000000001
 31
0.0
  0
LINE
  5
701
  8
0
  6
CONTINUOUS
 10
-100.666
 20
27.639199999999999
 30
0.0
 11
-100.682999
 21
27.6387
 31
0.0
  0
LINE
  5
702
  8
0
  6
CONTINUOUS
 10
-99.387900999999999
 20
29.085899000000001
 30
0.0
 11
-99.337699999999998
 21
29.085501000000001
 31
0.0
  0
LINE
  5
703
  8
0
  6
CONTINUOUS
 10
-105.56999999999999
 20
29.078199000000001
 30
0.0
 11
-105.578003
 21
29.078500999999999
 31
0.0
  0
LINE
  5
704
  8
0
  6
CONTINUOUS
 10
-105.593002
 20
29.086399
 30
0.0
 11
-105.49299600000001
 21
29.085501000000001
 31
0.0
  0
LINE
  5
705
  8
0
  6
CONTINUOUS
 10
-103.921997
 20
29.136700000000001
 30
0.0
 11
-104.01300000000001
 21
29.1784
 31
0.0
  0
LINE
  5
706
  8
0
  6
CONTINUOUS
 10
-104.01300000000001
 20
29.1784
 30
0.0
 11
-104.040001
 21
29.244399999999999
 31
0.0
  0
LINE
  5
707
  8
0
  6
CONTINUOUS
 10
-100.613998
 20
27.316600999999999
 30
0.0
 11
-100.647003
 21
27.322800000000001
 31
0.0
  0
LINE
  5
708
  8
0
  6
CONTINUOUS
 10
-101.650002
 20
26.313299000000001
 30
0.0
 11
-101.834999
 21
26.371700000000001
 31
0.0
  0
LINE
  5
709
  8
0
  6
CONTINUOUS
 10
-105.404999
 20
29.080400000000001
 30
0.0
 11
-105.400002
 21
29.0762
 31
0.0
  0
LINE
  5
70A
  8
0
  6
CONTINUOUS
 10
-103.224998
 20
25.471700999999999
 30
0.0
 11
-103.239998
 21
25.4893
 31
0.0
  0
LINE
  5
70B
  8
0
  6
CONTINUOUS
 10
-103.21199799999999
 20
25.444599
 30
0.0
 11
-103.236
 21
25.470300999999999
 31
0.0
  0
LINE
  5
70C
  8
0
  6
CONTINUOUS
 10
-102.406998
 20
23.040400000000002
 30
0.0
 11
-102.415001
 21
23.054099999999998
 31
0.0
  0
LINE
  5
70D
  8
0
  6
CONTINUOUS
 10
-95.610198999999994
 20
13.8399
 30
0.0
 11
-95.743499999999997
 21
13.886699999999999
 31
0.0
  0
LINE
  5
70E
  8
0
  6
CONTINUOUS
 10
-95.743499999999997
 20
13.886699999999999
 30
0.0
 11
-96.411201000000005
 21
13.9399
 31
0.0
  0
LINE
  5
70F
  8
0
  6
CONTINUOUS
 10
-96.411201000000005
 20
13.9399
 30
0.0
 11
-97.449600000000004
 21
13.934200000000001
 31
0.0
  0
LINE
  5
710
  8
0
  6
CONTINUOUS
 10
-97.449600000000004
 20
13.934200000000001
 30
0.0
 11
-98.01930200000001
 21
13.878299999999999
 31
0.0
  0
LINE
  5
711
  8
0
  6
CONTINUOUS
 10
-98.01930200000001
 20
13.878299999999999
 30
0.0
 11
-98.109802000000016
 21
13.8399
 31
0.0
  0
LINE
  5
712
  8
0
  6
CONTINUOUS
 10
-103.172997
 20
24.351998999999999
 30
0.0
 11
-103.16999800000001
 21
24.347300000000001
 31
0.0
  0
LINE
  5
713
  8
0
  6
CONTINUOUS
 10
-104.557999
 20
22.991599999999998
 30
0.0
 11
-104.218002
 21
22.537500000000001
 31
0.0
  0
LINE
  5
714
  8
0
  6
CONTINUOUS
 10
-104.218002
 20
22.537500000000001
 30
0.0
 11
-103.86900300000001
 21
22.183201
 31
0.0
  0
LINE
  5
715
  8
0
  6
CONTINUOUS
 10
-103.86900300000001
 20
22.183201
 30
0.0
 11
-103.85900100000001
 21
22.174900000000001
 31
0.0
  0
LINE
  5
716
  8
0
  6
CONTINUOUS
 10
-106.92800099999999
 20
72.635398999999992
 30
0.0
 11
-106.889999
 21
72.713302999999996
 31
0.0
  0
LINE
  5
717
  8
0
  6
CONTINUOUS
 10
-106.889999
 20
72.713302999999996
 30
0.0
 11
-106.828003
 21
72.735298
 31
0.0
  0
LINE
  5
718
  8
0
  6
CONTINUOUS
 10
-102.415001
 20
31.258900000000001
 30
0.0
 11
-102.995003
 21
31.203199000000001
 31
0.0
  0
LINE
  5
719
  8
0
  6
CONTINUOUS
 10
-102.995003
 20
31.203199000000001
 30
0.0
 11
-103.030998
 21
31.197901000000002
 31
0.0
  0
LINE
  5
71A
  8
0
  6
CONTINUOUS
 10
-103.264999
 20
31.155199
 30
0.0
 11
-103.239998
 21
31.148001000000001
 31
0.0
  0
LINE
  5
71B
  8
0
  6
CONTINUOUS
 10
-101.74900100000001
 20
31.198
 30
0.0
 11
-102.337997
 21
31.257601000000001
 31
0.0
  0
LINE
  5
71C
  8
0
  6
CONTINUOUS
 10
-102.337997
 20
31.257601000000001
 30
0.0
 11
-102.364998
 21
31.258900000000001
 31
0.0
  0
LINE
  5
71D
  8
0
  6
CONTINUOUS
 10
-102.393997
 20
31.072201
 30
0.0
 11
-102.405998
 21
31.079398999999999
 31
0.0
  0
LINE
  5
71E
  8
0
  6
CONTINUOUS
 10
-104.529999
 20
31.1646
 30
0.0
 11
-104.443001
 21
31.128499999999999
 31
0.0
  0
LINE
  5
71F
  8
0
  6
CONTINUOUS
 10
-94.960296999999997
 20
13.552199999999999
 30
0.0
 11
-95.074402000000006
 21
13.6053
 31
0.0
  0
LINE
  5
720
  8
0
  6
CONTINUOUS
 10
-95.074402000000006
 20
13.6053
 30
0.0
 11
-95.63580300000001
 21
13.6761
 31
0.0
  0
LINE
  5
721
  8
0
  6
CONTINUOUS
 10
-95.63580300000001
 20
13.6761
 30
0.0
 11
-96.799895999999976
 21
13.715199999999999
 31
0.0
  0
LINE
  5
722
  8
0
  6
CONTINUOUS
 10
-96.799895999999976
 20
13.715199999999999
 30
0.0
 11
-98.002403000000001
 21
13.681800000000001
 31
0.0
  0
LINE
  5
723
  8
0
  6
CONTINUOUS
 10
-98.002403000000001
 20
13.681800000000001
 30
0.0
 11
-98.619499000000005
 21
13.6114
 31
0.0
  0
LINE
  5
724
  8
0
  6
CONTINUOUS
 10
-98.619499000000005
 20
13.6114
 30
0.0
 11
-98.755402000000004
 21
13.557399999999999
 31
0.0
  0
LINE
  5
725
  8
0
  6
CONTINUOUS
 10
-98.755402000000004
 20
13.557399999999999
 30
0.0
 11
-98.759697000000003
 21
13.552199999999999
 31
0.0
  0
LINE
  5
726
  8
0
  6
CONTINUOUS
 10
-105.400002
 20
29.0762
 30
0.0
 11
-105.389
 21
29.038699999999999
 31
0.0
  0
LINE
  5
727
  8
0
  6
CONTINUOUS
 10
-104.105003
 20
22.950001
 30
0.0
 11
-103.886002
 21
22.577998999999998
 31
0.0
  0
LINE
  5
728
  8
0
  6
CONTINUOUS
 10
-103.16999800000001
 20
24.347300000000001
 30
0.0
 11
-103.047997
 21
24.059401000000001
 31
0.0
  0
LINE
  5
729
  8
0
  6
CONTINUOUS
 10
-103.047997
 20
24.059401000000001
 30
0.0
 11
-103.04299899999999
 21
23.9617
 31
0.0
  0
LINE
  5
72A
  8
0
  6
CONTINUOUS
 10
-106.915001
 20
15.9316
 30
0.0
 11
-106.876999
 21
15.8538
 31
0.0
  0
LINE
  5
72B
  8
0
  6
CONTINUOUS
 10
-106.876999
 20
15.8538
 30
0.0
 11
-106.81500200000001
 21
15.831799999999999
 31
0.0
  0
LINE
  5
72C
  8
0
  6
CONTINUOUS
 10
-101.85700199999999
 20
31.413499999999999
 30
0.0
 11
-101.883003
 21
31.420500000000001
 31
0.0
  0
LINE
  5
72D
  8
0
  6
CONTINUOUS
 10
-101.443001
 20
31.121798999999999
 30
0.0
 11
-101.460999
 21
31.128599000000001
 31
0.0
  0
LINE
  5
72E
  8
0
  6
CONTINUOUS
 10
-100.49299600000001
 20
28.233801
 30
0.0
 11
-100.621002
 21
28.341000000000001
 31
0.0
  0
LINE
  5
72F
  8
0
  6
CONTINUOUS
 10
-101.727997
 20
23.893101000000001
 30
0.0
 11
-101.75
 21
23.982099999999999
 31
0.0
  0
LINE
  5
730
  8
0
  6
CONTINUOUS
 10
-103.16999800000001
 20
23.685300999999999
 30
0.0
 11
-103.236
 21
23.926600000000001
 31
0.0
  0
LINE
  5
731
  8
0
  6
CONTINUOUS
 10
-103.236
 20
23.926600000000001
 30
0.0
 11
-103.24299600000001
 21
23.992201000000001
 31
0.0
  0
LINE
  5
732
  8
0
  6
CONTINUOUS
 10
-104.274002
 20
23.429898999999999
 30
0.0
 11
-104.105003
 21
22.950001
 31
0.0
  0
LINE
  5
733
  8
0
  6
CONTINUOUS
 10
-105.389
 20
29.038699999999999
 30
0.0
 11
-105.386002
 21
29.022600000000001
 31
0.0
  0
LINE
  5
734
  8
0
  6
CONTINUOUS
 10
-104.317001
 20
23.5947
 30
0.0
 11
-104.274002
 21
23.4298
 31
0.0
  0
LINE
  5
735
  8
0
  6
CONTINUOUS
 10
-103.95700100000001
 20
23.154699000000001
 30
0.0
 11
-103.91799899999999
 21
22.904499000000001
 31
0.0
  0
LINE
  5
736
  8
0
  6
CONTINUOUS
 10
-105.61799600000001
 20
15.9992
 30
0.0
 11
-105.577003
 21
15.9239
 31
0.0
  0
LINE
  5
737
  8
0
  6
CONTINUOUS
 10
-105.577003
 20
15.9239
 30
0.0
 11
-105.568001
 21
15.9176
 31
0.0
  0
LINE
  5
738
  8
0
  6
CONTINUOUS
 10
-105.299004
 20
24.708599
 30
0.0
 11
-105.251999
 21
24.531600999999998
 31
0.0
  0
LINE
  5
739
  8
0
  6
CONTINUOUS
 10
-105.251999
 20
24.531600999999998
 30
0.0
 11
-105.133003
 21
24.388901000000001
 31
0.0
  0
LINE
  5
73A
  8
0
  6
CONTINUOUS
 10
-105.133003
 20
24.388901000000001
 30
0.0
 11
-104.94699900000001
 21
24.295300000000001
 31
0.0
  0
LINE
  5
73B
  8
0
  6
CONTINUOUS
 10
-104.94699900000001
 20
24.295300000000001
 30
0.0
 11
-104.943001
 21
24.294001000000002
 31
0.0
  0
LINE
  5
73C
  8
0
  6
CONTINUOUS
 10
-104.383003
 20
24.084900000000001
 30
0.0
 11
-104.343002
 21
23.671499000000001
 31
0.0
  0
LINE
  5
73D
  8
0
  6
CONTINUOUS
 10
-103.873001
 20
22.432400000000001
 30
0.0
 11
-103.834999
 21
21.419499999999999
 31
0.0
  0
LINE
  5
73E
  8
0
  6
CONTINUOUS
 10
-103.68499799999999
 20
13.8996
 30
0.0
 11
-103.660004
 21
13.2332
 31
0.0
  0
LINE
  5
73F
  8
0
  6
CONTINUOUS
 10
-103.704002
 20
14.414
 30
0.0
 11
-103.68499799999999
 21
13.8996
 31
0.0
  0
LINE
  5
740
  8
0
  6
CONTINUOUS
 10
-103.654999
 20
13.096500000000001
 30
0.0
 11
-103.639999
 21
12.6623
 31
0.0
  0
LINE
  5
741
  8
0
  6
CONTINUOUS
 10
-103.656998
 20
13.138500000000001
 30
0.0
 11
-103.639999
 21
12.6622
 31
0.0
  0
LINE
  5
742
  8
0
  6
CONTINUOUS
 10
-103.724998
 20
14.992599999999999
 30
0.0
 11
-103.704002
 21
14.414
 31
0.0
  0
LINE
  5
743
  8
0
  6
CONTINUOUS
 10
-105.589996
 20
29.3736
 30
0.0
 11
-105.589996
 21
29.3643
 31
0.0
  0
LINE
  5
744
  8
0
  6
CONTINUOUS
 10
-105.089996
 20
26.557600000000001
 30
0.0
 11
-105.045998
 21
25.338200000000001
 31
0.0
  0
LINE
  5
745
  8
0
  6
CONTINUOUS
 10
-105.045998
 20
25.338200000000001
 30
0.0
 11
-104.921997
 21
24.141300000000001
 31
0.0
  0
LINE
  5
746
  8
0
  6
CONTINUOUS
 10
-104.921997
 20
24.141300000000001
 30
0.0
 11
-104.80999799999999
 21
23.618998999999999
 31
0.0
  0
LINE
  5
747
  8
0
  6
CONTINUOUS
 10
-104.80999799999999
 20
23.618998999999999
 30
0.0
 11
-104.628998
 21
23.141701000000001
 31
0.0
  0
LINE
  5
748
  8
0
  6
CONTINUOUS
 10
-104.628998
 20
23.141701000000001
 30
0.0
 11
-104.557999
 21
22.9909
 31
0.0
  0
LINE
  5
749
  8
0
  6
CONTINUOUS
 10
-105.59200300000001
 20
31.179001
 30
0.0
 11
-105.589996
 21
30.662099999999999
 31
0.0
  0
LINE
  5
74A
  8
0
  6
CONTINUOUS
 10
-104.540001
 20
29.3461
 30
0.0
 11
-104.53800200000001
 21
29.0961
 31
0.0
  0
LINE
  5
74B
  8
0
  6
CONTINUOUS
 10
-102.405998
 20
31.079398999999999
 30
0.0
 11
-102.41300200000001
 21
31.091000000000001
 31
0.0
  0
LINE
  5
74C
  8
0
  6
CONTINUOUS
 10
-100.353996
 20
28.1828
 30
0.0
 11
-100.64099899999999
 21
28.5581
 31
0.0
  0
LINE
  5
74D
  8
0
  6
CONTINUOUS
 10
-100.64099899999999
 20
28.5581
 30
0.0
 11
-100.646004
 21
28.563400000000001
 31
0.0
  0
LINE
  5
74E
  8
0
  6
CONTINUOUS
 10
-100.679001
 20
27.395499999999998
 30
0.0
 11
-100.807999
 21
27.708400999999999
 31
0.0
  0
LINE
  5
74F
  8
0
  6
CONTINUOUS
 10
-100.807999
 20
27.708400999999999
 30
0.0
 11
-100.86799600000001
 21
27.9953
 31
0.0
  0
LINE
  5
750
  8
0
  6
CONTINUOUS
 10
-100.689003
 20
28.709299000000001
 30
0.0
 11
-100.935997
 21
29.336901000000001
 31
0.0
  0
LINE
  5
751
  8
0
  6
CONTINUOUS
 10
-102.415001
 20
26.552098999999998
 30
0.0
 11
-102.396004
 21
26.533000999999999
 31
0.0
  0
LINE
  5
752
  8
0
  6
CONTINUOUS
 10
-102.363998
 20
26.443199
 30
0.0
 11
-102.364998
 21
26.449400000000001
 31
0.0
  0
LINE
  5
753
  8
0
  6
CONTINUOUS
 10
-101.53800200000001
 20
26.154699000000001
 30
0.0
 11
-101.56999999999999
 21
26.227399999999999
 31
0.0
  0
LINE
  5
754
  8
0
  6
CONTINUOUS
 10
-101.464996
 20
12.453200000000001
 30
0.0
 11
-101.468002
 21
12.457700000000001
 31
0.0
  0
LINE
  5
755
  8
0
  6
CONTINUOUS
 10
-102.94000200000001
 20
24.748899000000002
 30
0.0
 11
-102.887001
 21
24.606100000000001
 31
0.0
  0
LINE
  5
756
  8
0
  6
CONTINUOUS
 10
-102.887001
 20
24.606100000000001
 30
0.0
 11
-102.76300000000001
 21
24.509398999999998
 31
0.0
  0
LINE
  5
757
  8
0
  6
CONTINUOUS
 10
-102.76300000000001
 20
24.509398999999998
 30
0.0
 11
-102.52800000000001
 21
24.448
 31
0.0
  0
LINE
  5
758
  8
0
  6
CONTINUOUS
 10
-102.52800000000001
 20
24.448
 30
0.0
 11
-102.389999
 21
24.437201000000002
 31
0.0
  0
LINE
  5
759
  8
0
  6
CONTINUOUS
 10
-103.128998
 20
26.308299999999999
 30
0.0
 11
-103.129997
 21
26.313299000000001
 31
0.0
  0
LINE
  5
75A
  8
0
  6
CONTINUOUS
 10
-104.443001
 20
30.405199
 30
0.0
 11
-104.406998
 21
30.357700000000001
 31
0.0
  0
LINE
  5
75B
  8
0
  6
CONTINUOUS
 10
-104.406998
 20
30.357700000000001
 30
0.0
 11
-104.403999
 21
30.356501000000002
 31
0.0
  0
LINE
  5
75C
  8
0
  6
CONTINUOUS
 10
-103.75599699999999
 20
15.9588
 30
0.0
 11
-103.724998
 21
14.992599999999999
 31
0.0
  0
LINE
  5
75D
  8
0
  6
CONTINUOUS
 10
-103.78600299999999
 20
17.188998999999999
 30
0.0
 11
-103.76599899999999
 21
16.353300000000001
 31
0.0
  0
LINE
  5
75E
  8
0
  6
CONTINUOUS
 10
-103.80500000000001
 20
18.2075
 30
0.0
 11
-103.79299899999999
 21
17.558398999999991
 31
0.0
  0
LINE
  5
75F
  8
0
  6
CONTINUOUS
 10
-104.146004
 20
28.383400000000002
 30
0.0
 11
-104.133003
 21
27.446300999999998
 31
0.0
  0
LINE
  5
760
  8
0
  6
CONTINUOUS
 10
-103.828003
 20
20.713301000000001
 30
0.0
 11
-103.81199599999999
 21
18.7166
 31
0.0
  0
LINE
  5
761
  8
0
  6
CONTINUOUS
 10
-103.416
 20
31.7652
 30
0.0
 11
-103.416
 21
31.775600000000001
 31
0.0
  0
LINE
  5
762
  8
0
  6
CONTINUOUS
 10
-103.42800099999999
 20
31.079398999999999
 30
0.0
 11
-103.42800099999999
 21
31.105101000000001
 31
0.0
  0
LINE
  5
763
  8
0
  6
CONTINUOUS
 10
-104.725998
 20
20.097798999999998
 30
0.0
 11
-104.68499799999999
 21
20.247900000000001
 31
0.0
  0
LINE
  5
764
  8
0
  6
CONTINUOUS
 10
-104.68499799999999
 20
20.247900000000001
 30
0.0
 11
-104.578003
 21
20.355498999999998
 31
0.0
  0
LINE
  5
765
  8
0
  6
CONTINUOUS
 10
-104.578003
 20
20.355498999999998
 30
0.0
 11
-104.431
 21
20.397499
 31
0.0
  0
LINE
  5
766
  8
0
  6
CONTINUOUS
 10
-104.431
 20
20.397499
 30
0.0
 11
-104.42600299999999
 21
20.3978
 31
0.0
  0
LINE
  5
767
  8
0
  6
CONTINUOUS
 10
-105.203003
 20
20.097798999999998
 30
0.0
 11
-105.15799699999999
 21
20.353901
 31
0.0
  0
LINE
  5
768
  8
0
  6
CONTINUOUS
 10
-105.15799699999999
 20
20.353901
 30
0.0
 11
-105.042
 21
20.568999999999999
 31
0.0
  0
LINE
  5
769
  8
0
  6
CONTINUOUS
 10
-105.042
 20
20.568999999999999
 30
0.0
 11
-104.862999
 21
20.738001000000001
 31
0.0
  0
LINE
  5
76A
  8
0
  6
CONTINUOUS
 10
-104.862999
 20
20.738001000000001
 30
0.0
 11
-104.644997
 21
20.8414
 31
0.0
  0
LINE
  5
76B
  8
0
  6
CONTINUOUS
 10
-104.644997
 20
20.8414
 30
0.0
 11
-104.42600299999999
 21
20.875098999999999
 31
0.0
  0
LINE
  5
76C
  8
0
  6
CONTINUOUS
 10
-104.462997
 20
30.2453
 30
0.0
 11
-104.453003
 21
30.347798999999998
 31
0.0
  0
LINE
  5
76D
  8
0
  6
CONTINUOUS
 10
-105.089996
 20
26.557600000000001
 30
0.0
 11
-105.01599899999999
 21
27.046600000000002
 31
0.0
  0
LINE
  5
76E
  8
0
  6
CONTINUOUS
 10
-105.01599899999999
 20
27.046600000000002
 30
0.0
 11
-104.87799800000001
 21
27.438101
 31
0.0
  0
LINE
  5
76F
  8
0
  6
CONTINUOUS
 10
-104.87799800000001
 20
27.438101
 30
0.0
 11
-104.646004
 21
27.838498999999999
 31
0.0
  0
LINE
  5
770
  8
0
  6
CONTINUOUS
 10
-104.646004
 20
27.838498999999999
 30
0.0
 11
-104.567001
 21
27.951499999999999
 31
0.0
  0
LINE
  5
771
  8
0
  6
CONTINUOUS
 10
-104.144997
 20
26.528299000000001
 30
0.0
 11
-104.24400300000001
 21
25.7759
 31
0.0
  0
LINE
  5
772
  8
0
  6
CONTINUOUS
 10
-104.24400300000001
 20
25.7759
 30
0.0
 11
-104.266998
 21
25.648899
 31
0.0
  0
LINE
  5
773
  8
0
  6
CONTINUOUS
 10
-104.348
 20
25.195399999999999
 30
0.0
 11
-104.398003
 21
24.523899
 31
0.0
  0
LINE
  5
774
  8
0
  6
CONTINUOUS
 10
-104.398003
 20
24.523899
 30
0.0
 11
-104.400002
 21
24.453699
 31
0.0
  0
LINE
  5
775
  8
0
  6
CONTINUOUS
 10
-105.542
 20
31.215900000000001
 30
0.0
 11
-105.583
 21
31.067599999999999
 31
0.0
  0
LINE
  5
776
  8
0
  6
CONTINUOUS
 10
-105.583
 20
31.067599999999999
 30
0.0
 11
-105.59200300000001
 21
31.179001
 31
0.0
  0
LINE
  5
777
  8
0
  6
CONTINUOUS
 10
-104.040001
 20
29.947500000000002
 30
0.0
 11
-103.991997
 21
29.997999
 31
0.0
  0
LINE
  5
778
  8
0
  6
CONTINUOUS
 10
-103.991997
 20
29.997999
 30
0.0
 11
-103.860001
 21
30.004999000000002
 31
0.0
  0
LINE
  5
779
  8
0
  6
CONTINUOUS
 10
-103.860001
 20
30.004999000000002
 30
0.0
 11
-103.79299899999999
 21
29.958300000000001
 31
0.0
  0
LINE
  5
77A
  8
0
  6
CONTINUOUS
 10
-103.79299899999999
 20
29.958300000000001
 30
0.0
 11
-103.790001
 21
29.947399000000001
 31
0.0
  0
LINE
  5
77B
  8
0
  6
CONTINUOUS
 10
-100.327003
 20
30.347798999999998
 30
0.0
 11
-100.317001
 21
30.2453
 31
0.0
  0
LINE
  5
77C
  8
0
  6
CONTINUOUS
 10
-100.69499999999999
 20
28.722099
 30
0.0
 11
-101.01799800000001
 21
29.546900000000001
 31
0.0
  0
LINE
  5
77D
  8
0
  6
CONTINUOUS
 10
-101.04299899999999
 20
29.610800000000001
 30
0.0
 11
-101.135002
 21
29.883699
 31
0.0
  0
LINE
  5
77E
  8
0
  6
CONTINUOUS
 10
-101.08200100000001
 20
29.627700999999998
 30
0.0
 11
-101.206001
 21
30.249200999999999
 31
0.0
  0
LINE
  5
77F
  8
0
  6
CONTINUOUS
 10
-101.246002
 20
30.453800000000001
 30
0.0
 11
-101.33000199999999
 21
30.843699999999998
 31
0.0
  0
LINE
  5
780
  8
0
  6
CONTINUOUS
 10
-101.589996
 20
26.241899
 30
0.0
 11
-101.606003
 21
26.281700000000001
 31
0.0
  0
LINE
  5
781
  8
0
  6
CONTINUOUS
 10
-100.431999
 20
25.195399999999999
 30
0.0
 11
-100.593002
 21
26.106300000000001
 31
0.0
  0
LINE
  5
782
  8
0
  6
CONTINUOUS
 10
-100.956001
 20
19.8141
 30
0.0
 11
-100.980003
 21
20.221399000000002
 31
0.0
  0
LINE
  5
783
  8
0
  6
CONTINUOUS
 10
-100.980003
 20
20.221399000000002
 30
0.0
 11
-100.974998
 21
20.290899
 31
0.0
  0
LINE
  5
784
  8
0
  6
CONTINUOUS
 10
-99.690101999999996
 20
26.557600000000001
 30
0.0
 11
-99.765998999999994
 21
27.054600000000001
 31
0.0
  0
LINE
  5
785
  8
0
  6
CONTINUOUS
 10
-99.765998999999994
 20
27.054600000000001
 30
0.0
 11
-99.908400999999984
 21
27.452200000000001
 31
0.0
  0
LINE
  5
786
  8
0
  6
CONTINUOUS
 10
-99.908400999999984
 20
27.452200000000001
 30
0.0
 11
-100.155998
 21
27.870999999999999
 31
0.0
  0
LINE
  5
787
  8
0
  6
CONTINUOUS
 10
-100.155998
 20
27.870999999999999
 30
0.0
 11
-100.212997
 21
27.951499999999999
 31
0.0
  0
LINE
  5
788
  8
0
  6
CONTINUOUS
 10
-100.86799600000001
 20
27.9953
 30
0.0
 11
-100.866997
 21
28.0578
 31
0.0
  0
LINE
  5
789
  8
0
  6
CONTINUOUS
 10
-101.351997
 20
31.105101000000001
 30
0.0
 11
-101.351997
 21
31.079398999999999
 31
0.0
  0
LINE
  5
78A
  8
0
  6
CONTINUOUS
 10
-100.646004
 20
26.919799999999999
 30
0.0
 11
-100.648003
 21
27.195699999999999
 31
0.0
  0
LINE
  5
78B
  8
0
  6
CONTINUOUS
 10
-101.839996
 20
25.491599999999998
 30
0.0
 11
-101.839996
 21
25.480101000000001
 31
0.0
  0
LINE
  5
78C
  8
0
  6
CONTINUOUS
 10
-100.950996
 20
20.385099
 30
0.0
 11
-100.949997
 21
20.666201000000001
 31
0.0
  0
LINE
  5
78D
  8
0
  6
CONTINUOUS
 10
-100.94899700000001
 20
20.775499
 30
0.0
 11
-100.931
 21
21.993299
 31
0.0
  0
LINE
  5
78E
  8
0
  6
CONTINUOUS
 10
-100.241997
 20
29.0961
 30
0.0
 11
-100.239998
 21
29.3461
 31
0.0
  0
LINE
  5
78F
  8
0
  6
CONTINUOUS
 10
-101.739998
 20
23.985800000000001
 30
0.0
 11
-101.694
 21
24.174199999999999
 31
0.0
  0
LINE
  5
790
  8
0
  6
CONTINUOUS
 10
-101.694
 20
24.174199999999999
 30
0.0
 11
-101.63099699999999
 21
24.306498999999999
 31
0.0
  0
LINE
  5
791
  8
0
  6
CONTINUOUS
 10
-101.05999799999999
 20
14.819800000000001
 30
0.0
 11
-100.97199999999999
 21
18.318999999999999
 31
0.0
  0
LINE
  5
792
  8
0
  6
CONTINUOUS
 10
-101.589996
 20
24.067499000000002
 30
0.0
 11
-101.61900300000001
 21
23.894100000000002
 31
0.0
  0
LINE
  5
793
  8
0
  6
CONTINUOUS
 10
-101.61900300000001
 20
23.894100000000002
 30
0.0
 11
-101.672997
 21
23.859698999999999
 31
0.0
  0
LINE
  5
794
  8
0
  6
CONTINUOUS
 10
-101.672997
 20
23.859698999999999
 30
0.0
 11
-101.727997
 21
23.893101000000001
 31
0.0
  0
LINE
  5
795
  8
0
  6
CONTINUOUS
 10
-100.397003
 20
24.084900000000001
 30
0.0
 11
-100.389
 21
24.739000000000001
 31
0.0
  0
LINE
  5
796
  8
0
  6
CONTINUOUS
 10
-100.389
 20
24.739000000000001
 30
0.0
 11
-100.39299800000001
 21
24.848700000000001
 31
0.0
  0
LINE
  5
797
  8
0
  6
CONTINUOUS
 10
-102.415001
 20
26.449400000000001
 30
0.0
 11
-102.416
 21
26.443300000000001
 31
0.0
  0
LINE
  5
798
  8
0
  6
CONTINUOUS
 10
-101.75
 20
23.982099999999999
 30
0.0
 11
-101.69000200000001
 21
24.193398999999999
 31
0.0
  0
LINE
  5
799
  8
0
  6
CONTINUOUS
 10
-101.69000200000001
 20
24.193398999999999
 30
0.0
 11
-101.668999
 21
24.2409
 31
0.0
  0
LINE
  5
79A
  8
0
  6
CONTINUOUS
 10
-100.739998
 20
29.244399999999999
 30
0.0
 11
-100.779999
 21
29.165700999999999
 31
0.0
  0
LINE
  5
79B
  8
0
  6
CONTINUOUS
 10
-100.779999
 20
29.165700999999999
 30
0.0
 11
-100.858002
 21
29.136700000000001
 31
0.0
  0
LINE
  5
79C
  8
0
  6
CONTINUOUS
 10
-101.65100099999999
 20
26.308299999999999
 30
0.0
 11
-101.650002
 21
26.313299000000001
 31
0.0
  0
LINE
  5
79D
  8
0
  6
CONTINUOUS
 10
-103.61799600000001
 20
30.022499
 30
0.0
 11
-103.697998
 21
29.627700999999998
 31
0.0
  0
LINE
  5
79E
  8
0
  6
CONTINUOUS
 10
-102.94000200000001
 20
25.4909
 30
0.0
 11
-102.87400100000001
 21
25.654900000000001
 31
0.0
  0
LINE
  5
79F
  8
0
  6
CONTINUOUS
 10
-102.87400100000001
 20
25.654900000000001
 30
0.0
 11
-102.731003
 21
25.7896
 31
0.0
  0
LINE
  5
7A0
  8
0
  6
CONTINUOUS
 10
-102.731003
 20
25.7896
 30
0.0
 11
-102.525002
 21
25.872800999999999
 31
0.0
  0
LINE
  5
7A1
  8
0
  6
CONTINUOUS
 10
-102.525002
 20
25.872800999999999
 30
0.0
 11
-102.389999
 21
25.892401
 31
0.0
  0
LINE
  5
7A2
  8
0
  6
CONTINUOUS
 10
-103.408997
 20
31.035298999999998
 30
0.0
 11
-103.533997
 21
30.453800000000001
 31
0.0
  0
LINE
  5
7A3
  8
0
  6
CONTINUOUS
 10
-103.644997
 20
29.883300999999999
 30
0.0
 11
-103.702003
 21
29.709101
 31
0.0
  0
LINE
  5
7A4
  8
0
  6
CONTINUOUS
 10
-103.760002
 20
29.550899999999999
 30
0.0
 11
-104.084999
 21
28.722099
 31
0.0
  0
LINE
  5
7A5
  8
0
  6
CONTINUOUS
 10
-103.760002
 20
29.550899999999999
 30
0.0
 11
-103.968002
 21
29.022099999999998
 31
0.0
  0
LINE
  5
7A6
  8
0
  6
CONTINUOUS
 10
-99.238297000000003
 20
31.215900000000001
 30
0.0
 11
-99.388199
 21
31.756599000000001
 31
0.0
  0
LINE
  5
7A7
  8
0
  6
CONTINUOUS
 10
-99.388199
 20
31.756599000000001
 30
0.0
 11
-99.591599000000016
 21
32.205798999999999
 31
0.0
  0
LINE
  5
7A8
  8
0
  6
CONTINUOUS
 10
-99.591599000000016
 20
32.205798999999999
 30
0.0
 11
-99.866096000000013
 21
32.622700000000002
 31
0.0
  0
LINE
  5
7A9
  8
0
  6
CONTINUOUS
 10
-99.866096000000013
 20
32.622700000000002
 30
0.0
 11
-100.202003
 21
32.991900999999999
 31
0.0
  0
LINE
  5
7AA
  8
0
  6
CONTINUOUS
 10
-100.202003
 20
32.991900999999999
 30
0.0
 11
-100.59200300000001
 21
33.304298000000003
 31
0.0
  0
LINE
  5
7AB
  8
0
  6
CONTINUOUS
 10
-100.59200300000001
 20
33.304298000000003
 30
0.0
 11
-101.018997
 21
33.548800999999997
 31
0.0
  0
LINE
  5
7AC
  8
0
  6
CONTINUOUS
 10
-101.018997
 20
33.548800999999997
 30
0.0
 11
-101.485001
 21
33.727299000000002
 31
0.0
  0
LINE
  5
7AD
  8
0
  6
CONTINUOUS
 10
-101.485001
 20
33.727299000000002
 30
0.0
 11
-101.97399900000001
 21
33.830897999999998
 31
0.0
  0
LINE
  5
7AE
  8
0
  6
CONTINUOUS
 10
-101.97399900000001
 20
33.830897999999998
 30
0.0
 11
-102.473
 21
33.856898999999999
 31
0.0
  0
LINE
  5
7AF
  8
0
  6
CONTINUOUS
 10
-102.473
 20
33.856898999999999
 30
0.0
 11
-102.970001
 21
33.804901000000001
 31
0.0
  0
LINE
  5
7B0
  8
0
  6
CONTINUOUS
 10
-102.970001
 20
33.804901000000001
 30
0.0
 11
-103.453003
 21
33.675998999999997
 31
0.0
  0
LINE
  5
7B1
  8
0
  6
CONTINUOUS
 10
-103.453003
 20
33.675998999999997
 30
0.0
 11
-103.910004
 21
33.473399999999998
 31
0.0
  0
LINE
  5
7B2
  8
0
  6
CONTINUOUS
 10
-103.910004
 20
33.473399999999998
 30
0.0
 11
-104.33000199999999
 21
33.202098999999997
 31
0.0
  0
LINE
  5
7B3
  8
0
  6
CONTINUOUS
 10
-104.33000199999999
 20
33.202098999999997
 30
0.0
 11
-104.702003
 21
32.868999000000002
 31
0.0
  0
LINE
  5
7B4
  8
0
  6
CONTINUOUS
 10
-104.702003
 20
32.868999000000002
 30
0.0
 11
-105.02600099999999
 21
32.46900200000001
 31
0.0
  0
LINE
  5
7B5
  8
0
  6
CONTINUOUS
 10
-105.02600099999999
 20
32.46900200000001
 30
0.0
 11
-105.275002
 21
32.036597999999998
 31
0.0
  0
LINE
  5
7B6
  8
0
  6
CONTINUOUS
 10
-105.275002
 20
32.036597999999998
 30
0.0
 11
-105.449997
 21
31.5793
 31
0.0
  0
LINE
  5
7B7
  8
0
  6
CONTINUOUS
 10
-105.449997
 20
31.5793
 30
0.0
 11
-105.542
 21
31.215900000000001
 31
0.0
  0
LINE
  5
7B8
  8
0
  6
CONTINUOUS
 10
-100.30500000000001
 20
28.071199
 30
0.0
 11
-100.353996
 21
28.1828
 31
0.0
  0
LINE
  5
7B9
  8
0
  6
CONTINUOUS
 10
-99.188300999999996
 20
31.179001
 30
0.0
 11
-99.190002000000007
 21
30.662099999999999
 31
0.0
  0
LINE
  5
7BA
  8
0
  6
CONTINUOUS
 10
-99.188300999999996
 20
31.179001
 30
0.0
 11
-99.205200000000005
 21
31.069099000000001
 31
0.0
  0
LINE
  5
7BB
  8
0
  6
CONTINUOUS
 10
-99.205200000000005
 20
31.069099000000001
 30
0.0
 11
-99.238297000000003
 21
31.215900000000001
 31
0.0
  0
LINE
  5
7BC
  8
0
  6
CONTINUOUS
 10
-100.054001
 20
17.326401000000001
 30
0.0
 11
-100.094002
 21
17.177900000000001
 31
0.0
  0
LINE
  5
7BD
  8
0
  6
CONTINUOUS
 10
-100.094002
 20
17.177900000000001
 30
0.0
 11
-100.199997
 21
17.069599
 31
0.0
  0
LINE
  5
7BE
  8
0
  6
CONTINUOUS
 10
-100.199997
 20
17.069599
 30
0.0
 11
-100.34899900000001
 21
17.026699000000001
 31
0.0
  0
LINE
  5
7BF
  8
0
  6
CONTINUOUS
 10
-100.34899900000001
 20
17.026699000000001
 30
0.0
 11
-100.353996
 21
17.026399999999999
 31
0.0
  0
LINE
  5
7C0
  8
0
  6
CONTINUOUS
 10
-99.577003000000005
 20
17.326401000000001
 30
0.0
 11
-99.623199
 21
17.068000999999999
 31
0.0
  0
LINE
  5
7C1
  8
0
  6
CONTINUOUS
 10
-99.623199
 20
17.068000999999999
 30
0.0
 11
-99.741302000000005
 21
16.851500000000001
 31
0.0
  0
LINE
  5
7C2
  8
0
  6
CONTINUOUS
 10
-99.741302000000005
 20
16.851500000000001
 30
0.0
 11
-99.920601000000005
 21
16.683599000000001
 31
0.0
  0
LINE
  5
7C3
  8
0
  6
CONTINUOUS
 10
-99.920601000000005
 20
16.683599000000001
 30
0.0
 11
-100.141998
 21
16.5807
 31
0.0
  0
LINE
  5
7C4
  8
0
  6
CONTINUOUS
 10
-100.141998
 20
16.5807
 30
0.0
 11
-100.353996
 21
16.549101
 31
0.0
  0
LINE
  5
7C5
  8
0
  6
CONTINUOUS
 10
-99.393799000000001
 20
29.022600000000001
 30
0.0
 11
-99.378501999999983
 21
29.077499
 31
0.0
  0
LINE
  5
7C6
  8
0
  6
CONTINUOUS
 10
-100.86199999999999
 20
22.904301
 30
0.0
 11
-100.822998
 21
23.154599999999999
 31
0.0
  0
LINE
  5
7C7
  8
0
  6
CONTINUOUS
 10
-102.415001
 20
12.6934
 30
0.0
 11
-102.396004
 21
12.7211
 31
0.0
  0
LINE
  5
7C8
  8
0
  6
CONTINUOUS
 10
-99.190399000000014
 20
29.3643
 30
0.0
 11
-99.190002000000007
 21
30.662099999999999
 31
0.0
  0
LINE
  5
7C9
  8
0
  6
CONTINUOUS
 10
-100.43699599999999
 20
23.671499000000001
 30
0.0
 11
-100.433998
 21
23.691299000000001
 31
0.0
  0
LINE
  5
7CA
  8
0
  6
CONTINUOUS
 10
-100.989998
 20
29.947599
 30
0.0
 11
-100.942001
 21
29.997900000000001
 31
0.0
  0
LINE
  5
7CB
  8
0
  6
CONTINUOUS
 10
-100.942001
 20
29.997900000000001
 30
0.0
 11
-100.80999799999999
 21
30.005099999999999
 31
0.0
  0
LINE
  5
7CC
  8
0
  6
CONTINUOUS
 10
-100.80999799999999
 20
30.005099999999999
 30
0.0
 11
-100.74299600000001
 21
29.958300000000001
 31
0.0
  0
LINE
  5
7CD
  8
0
  6
CONTINUOUS
 10
-100.74299600000001
 20
29.958300000000001
 30
0.0
 11
-100.739998
 21
29.947399000000001
 31
0.0
  0
LINE
  5
7CE
  8
0
  6
CONTINUOUS
 10
-103.31500200000001
 20
12.453200000000001
 30
0.0
 11
-103.31199599999999
 21
12.457700000000001
 31
0.0
  0
LINE
  5
7CF
  8
0
  6
CONTINUOUS
 10
-101.540001
 20
25.4893
 30
0.0
 11
-101.55500000000001
 21
25.471700999999999
 31
0.0
  0
LINE
  5
7D0
  8
0
  6
CONTINUOUS
 10
-103.24299600000001
 20
25.812000000000001
 30
0.0
 11
-103.223
 21
25.8675
 31
0.0
  0
LINE
  5
7D1
  8
0
  6
CONTINUOUS
 10
-103.04299899999999
 20
23.9617
 30
0.0
 11
-103.067001
 21
23.9175
 31
0.0
  0
LINE
  5
7D2
  8
0
  6
CONTINUOUS
 10
-103.223
 20
25.8675
 30
0.0
 11
-103.19000200000001
 21
25.9359
 31
0.0
  0
LINE
  5
7D3
  8
0
  6
CONTINUOUS
 10
-104.42600299999999
 20
28.1828
 30
0.0
 11
-104.474998
 21
28.071199
 31
0.0
  0
LINE
  5
7D4
  8
0
  6
CONTINUOUS
 10
-94.270896999999991
 20
14.568899999999999
 30
0.0
 11
-94.273499000000015
 21
14.7621
 31
0.0
  0
LINE
  5
7D5
  8
0
  6
CONTINUOUS
 10
-97.851897999999991
 20
15.9185
 30
0.0
 11
-97.891502000000017
 21
15.839700000000001
 31
0.0
  0
LINE
  5
7D6
  8
0
  6
CONTINUOUS
 10
-97.891502000000017
 20
15.839700000000001
 30
0.0
 11
-97.951697999999993
 21
15.8187
 31
0.0
  0
LINE
  5
7D7
  8
0
  6
CONTINUOUS
 10
-100.958
 20
19.767900000000001
 30
0.0
 11
-100.95500199999999
 21
19.7913
 31
0.0
  0
LINE
  5
7D8
  8
0
  6
CONTINUOUS
 10
-100.50599699999999
 20
23.4298
 30
0.0
 11
-100.462997
 21
23.594601000000001
 31
0.0
  0
LINE
  5
7D9
  8
0
  6
CONTINUOUS
 10
-100.648003
 20
27.680098999999998
 30
0.0
 11
-100.643997
 21
27.699300999999998
 31
0.0
  0
LINE
  5
7DA
  8
0
  6
CONTINUOUS
 10
-100.44499999999999
 20
23.645700000000001
 30
0.0
 11
-100.43699599999999
 21
23.671499000000001
 31
0.0
  0
LINE
  5
7DB
  8
0
  6
CONTINUOUS
 10
-101.62400100000001
 20
24.321400000000001
 30
0.0
 11
-101.608002
 21
24.349899000000001
 31
0.0
  0
LINE
  5
7DC
  8
0
  6
CONTINUOUS
 10
-104.13400300000001
 20
28.563299000000001
 30
0.0
 11
-104.424004
 21
28.186501
 31
0.0
  0
LINE
  5
7DD
  8
0
  6
CONTINUOUS
 10
-104.424004
 20
28.186501
 30
0.0
 11
-104.42600299999999
 21
28.1828
 31
0.0
  0
LINE
  5
7DE
  8
0
  6
CONTINUOUS
 10
-103.421997
 20
31.770299999999999
 30
0.0
 11
-103.43800400000001
 21
31.757601000000001
 31
0.0
  0
LINE
  5
7DF
  8
0
  6
CONTINUOUS
 10
-101.540001
 20
31.148001000000001
 30
0.0
 11
-101.514999
 21
31.155199
 31
0.0
  0
LINE
  5
7E0
  8
0
  6
CONTINUOUS
 10
-103.319
 20
31.128599000000001
 30
0.0
 11
-103.33200100000001
 21
31.123899000000002
 31
0.0
  0
LINE
  5
7E1
  8
0
  6
CONTINUOUS
 10
-97.864998000000014
 20
72.622298999999998
 30
0.0
 11
-97.904601999999997
 21
72.701201999999995
 31
0.0
  0
LINE
  5
7E2
  8
0
  6
CONTINUOUS
 10
-97.904601999999997
 20
72.701201999999995
 30
0.0
 11
-97.964798000000002
 21
72.722197999999992
 31
0.0
  0
LINE
  5
7E3
  8
0
  6
CONTINUOUS
 10
-94.271004000000005
 20
14.7621
 30
0.0
 11
-94.268401999999995
 21
14.568899999999999
 31
0.0
  0
LINE
  5
7E4
  8
0
  6
CONTINUOUS
 10
-94.192496999999989
 20
21.362100999999999
 30
0.0
 11
-94.195998999999986
 21
21.562099
 31
0.0
  0
LINE
  5
7E5
  8
0
  6
CONTINUOUS
 10
-94.273499000000015
 20
21.362100999999999
 30
0.0
 11
-94.268799000000016
 21
21.546199999999999
 31
0.0
  0
LINE
  5
7E6
  8
0
  6
CONTINUOUS
 10
-94.268799000000016
 20
21.546199999999999
 30
0.0
 11
-94.271004000000005
 21
21.362100999999999
 31
0.0
  0
LINE
  5
7E7
  8
0
  6
CONTINUOUS
 10
-100.675003
 20
22.950001
 30
0.0
 11
-100.50599699999999
 21
23.429898999999999
 31
0.0
  0
LINE
  5
7E8
  8
0
  6
CONTINUOUS
 10
-100.22199999999999
 20
22.9909
 30
0.0
 11
-100.00599699999999
 21
23.5063
 31
0.0
  0
LINE
  5
7E9
  8
0
  6
CONTINUOUS
 10
-100.00599699999999
 20
23.5063
 30
0.0
 11
-99.881202999999999
 21
23.999200999999999
 31
0.0
  0
LINE
  5
7EA
  8
0
  6
CONTINUOUS
 10
-99.881202999999999
 20
23.999200999999999
 30
0.0
 11
-99.752898999999985
 21
25.097200000000001
 31
0.0
  0
LINE
  5
7EB
  8
0
  6
CONTINUOUS
 10
-99.752898999999985
 20
25.097200000000001
 30
0.0
 11
-99.693199000000007
 21
26.295500000000001
 31
0.0
  0
LINE
  5
7EC
  8
0
  6
CONTINUOUS
 10
-99.693199000000007
 20
26.295500000000001
 30
0.0
 11
-99.690101999999996
 21
26.557600000000001
 31
0.0
  0
LINE
  5
7ED
  8
0
  6
CONTINUOUS
 10
-101.614998
 20
24.346201000000001
 30
0.0
 11
-101.589996
 21
24.374901000000001
 31
0.0
  0
LINE
  5
7EE
  8
0
  6
CONTINUOUS
 10
-101.608002
 20
23.6877
 30
0.0
 11
-101.780998
 21
23.4956
 31
0.0
  0
LINE
  5
7EF
  8
0
  6
CONTINUOUS
 10
-101.780998
 20
23.4956
 30
0.0
 11
-102.0
 21
23.374901000000001
 31
0.0
  0
LINE
  5
7F0
  8
0
  6
CONTINUOUS
 10
-102.0
 20
23.374901000000001
 30
0.0
 11
-102.172997
 21
23.319400999999999
 31
0.0
  0
LINE
  5
7F1
  8
0
  6
CONTINUOUS
 10
-99.378501999999983
 20
29.077499
 30
0.0
 11
-99.376296999999994
 21
29.079599000000002
 31
0.0
  0
LINE
  5
7F2
  8
0
  6
CONTINUOUS
 10
-100.866997
 20
28.0578
 30
0.0
 11
-100.870003
 21
28.054399
 31
0.0
  0
LINE
  5
7F3
  8
0
  6
CONTINUOUS
 10
-103.189003
 20
26.246700000000001
 30
0.0
 11
-103.241997
 21
26.154599999999999
 31
0.0
  0
LINE
  5
7F4
  8
0
  6
CONTINUOUS
 10
-100.33699799999999
 20
31.128499999999999
 30
0.0
 11
-100.25
 21
31.1646
 31
0.0
  0
LINE
  5
7F5
  8
0
  6
CONTINUOUS
 10
-100.37599899999999
 20
30.356501000000002
 30
0.0
 11
-100.337997
 21
30.401800000000001
 31
0.0
  0
LINE
  5
7F6
  8
0
  6
CONTINUOUS
 10
-100.337997
 20
30.401800000000001
 30
0.0
 11
-100.33699799999999
 21
30.405199
 31
0.0
  0
LINE
  5
7F7
  8
0
  6
CONTINUOUS
 10
-94.194999999999993
 20
73.617203000000003
 30
0.0
 11
-94.235396999999992
 21
73.706001000000001
 31
0.0
  0
LINE
  5
7F8
  8
0
  6
CONTINUOUS
 10
-94.235396999999992
 20
73.706001000000001
 30
0.0
 11
-94.314903000000001
 21
73.737099000000001
 31
0.0
  0
LINE
  5
7F9
  8
0
  6
CONTINUOUS
 10
-94.195198000000005
 20
13.508599999999999
 30
0.0
 11
-94.235702999999987
 21
13.419499999999999
 31
0.0
  0
LINE
  5
7FA
  8
0
  6
CONTINUOUS
 10
-94.235702999999987
 20
13.419499999999999
 30
0.0
 11
-94.315101999999996
 21
13.388299999999999
 31
0.0
  0
LINE
  5
7FB
  8
0
  6
CONTINUOUS
 10
-94.195998999999986
 20
14.562099999999999
 30
0.0
 11
-94.192496999999989
 21
14.7621
 31
0.0
  0
LINE
  5
7FC
  8
0
  6
CONTINUOUS
 10
-100.956001
 20
20.365400000000001
 30
0.0
 11
-100.952003
 21
20.375999
 31
0.0
  0
LINE
  5
7FD
  8
0
  6
CONTINUOUS
 10
-100.893997
 20
22.5779
 30
0.0
 11
-100.675003
 21
22.950001
 31
0.0
  0
LINE
  5
7FE
  8
0
  6
CONTINUOUS
 10
-100.920998
 20
22.174999
 30
0.0
 11
-100.616997
 21
22.457198999999999
 31
0.0
  0
LINE
  5
7FF
  8
0
  6
CONTINUOUS
 10
-100.616997
 20
22.457198999999999
 30
0.0
 11
-100.43000000000001
 21
22.6693
 31
0.0
  0
LINE
  5
800
  8
0
  6
CONTINUOUS
 10
-101.550003
 20
23.863899
 30
0.0
 11
-101.587997
 21
23.851199999999999
 31
0.0
  0
LINE
  5
801
  8
0
  6
CONTINUOUS
 10
-102.35900100000001
 20
23.300599999999999
 30
0.0
 11
-102.364998
 21
23.293099999999999
 31
0.0
  0
LINE
  5
802
  8
0
  6
CONTINUOUS
 10
-99.837097
 20
24.294001000000002
 30
0.0
 11
-99.648597999999993
 21
24.388000000000002
 31
0.0
  0
LINE
  5
803
  8
0
  6
CONTINUOUS
 10
-99.648597999999993
 20
24.388000000000002
 30
0.0
 11
-99.528296999999995
 21
24.531600999999998
 31
0.0
  0
LINE
  5
804
  8
0
  6
CONTINUOUS
 10
-99.528296999999995
 20
24.531600999999998
 30
0.0
 11
-99.480796999999995
 21
24.708599
 31
0.0
  0
LINE
  5
805
  8
0
  6
CONTINUOUS
 10
-98.959701999999993
 20
13.5525
 30
0.0
 11
-98.846298000000004
 21
13.607799999999999
 31
0.0
  0
LINE
  5
806
  8
0
  6
CONTINUOUS
 10
-98.846298000000004
 20
13.607799999999999
 30
0.0
 11
-98.792000000000002
 21
13.6213
 31
0.0
  0
LINE
  5
807
  8
0
  6
CONTINUOUS
 10
-98.309798999999998
 20
13.840199999999999
 30
0.0
 11
-98.184402000000006
 21
13.889099999999999
 31
0.0
  0
LINE
  5
808
  8
0
  6
CONTINUOUS
 10
-98.184402000000006
 20
13.889099999999999
 30
0.0
 11
-97.551497999999995
 21
13.949299999999999
 31
0.0
  0
LINE
  5
809
  8
0
  6
CONTINUOUS
 10
-97.551497999999995
 20
13.949299999999999
 30
0.0
 11
-96.437201999999999
 21
13.959099999999999
 31
0.0
  0
LINE
  5
80A
  8
0
  6
CONTINUOUS
 10
-96.437201999999999
 20
13.959099999999999
 30
0.0
 11
-95.636100999999996
 21
13.9056
 31
0.0
  0
LINE
  5
80B
  8
0
  6
CONTINUOUS
 10
-95.636100999999996
 20
13.9056
 30
0.0
 11
-95.422302000000002
 21
13.851900000000001
 31
0.0
  0
LINE
  5
80C
  8
0
  6
CONTINUOUS
 10
-95.422302000000002
 20
13.851900000000001
 30
0.0
 11
-95.410201999999998
 21
13.840199999999999
 31
0.0
  0
LINE
  5
80D
  8
0
  6
CONTINUOUS
 10
-101.470001
 20
12.4476
 30
0.0
 11
-101.464996
 21
12.453200000000001
 31
0.0
  0
LINE
  5
80E
  8
0
  6
CONTINUOUS
 10
-99.212097
 20
15.9176
 30
0.0
 11
-99.163498000000004
 21
15.99
 31
0.0
  0
LINE
  5
80F
  8
0
  6
CONTINUOUS
 10
-99.163498000000004
 20
15.99
 30
0.0
 11
-99.162102000000004
 21
15.9992
 31
0.0
  0
LINE
  5
810
  8
0
  6
CONTINUOUS
 10
-99.212097
 20
15.9176
 30
0.0
 11
-99.263603000000003
 21
15.9033
 31
0.0
  0
LINE
  5
811
  8
0
  6
CONTINUOUS
 10
-103.31199599999999
 20
12.457700000000001
 30
0.0
 11
-103.302002
 21
12.4621
 31
0.0
  0
LINE
  5
812
  8
0
  6
CONTINUOUS
 10
-103.59200300000001
 20
12.6943
 30
0.0
 11
-103.639999
 21
12.6622
 31
0.0
  0
LINE
  5
813
  8
0
  6
CONTINUOUS
 10
-101.639
 20
12.3887
 30
0.0
 11
-101.543999
 21
12.432399999999999
 31
0.0
  0
LINE
  5
814
  8
0
  6
CONTINUOUS
 10
-101.327003
 20
12.474500000000001
 30
0.0
 11
-101.208
 21
12.554399999999999
 31
0.0
  0
LINE
  5
815
  8
0
  6
CONTINUOUS
 10
-101.208
 20
12.554399999999999
 30
0.0
 11
-101.166
 21
12.610900000000001
 31
0.0
  0
LINE
  5
816
  8
0
  6
CONTINUOUS
 10
-101.48200199999999
 20
12.443199999999999
 30
0.0
 11
-101.473
 21
12.446099999999999
 31
0.0
  0
LINE
  5
817
  8
0
  6
CONTINUOUS
 10
-110.464996
 20
73.735802000000007
 30
0.0
 11
-110.55300099999999
 21
73.695801000000003
 31
0.0
  0
LINE
  5
818
  8
0
  6
CONTINUOUS
 10
-110.55300099999999
 20
73.695801000000003
 30
0.0
 11
-110.58200100000001
 21
73.639099000000002
 31
0.0
  0
LINE
  5
819
  8
0
  6
CONTINUOUS
 10
-106.81500200000001
 20
72.722197999999992
 30
0.0
 11
-106.893997
 21
72.682899000000006
 31
0.0
  0
LINE
  5
81A
  8
0
  6
CONTINUOUS
 10
-106.893997
 20
72.682899000000006
 30
0.0
 11
-106.915001
 21
72.622298999999998
 31
0.0
  0
LINE
  5
81B
  8
0
  6
CONTINUOUS
 10
-110.464996
 20
73.737099000000001
 30
0.0
 11
-110.554001
 21
73.696999000000005
 31
0.0
  0
LINE
  5
81C
  8
0
  6
CONTINUOUS
 10
-110.554001
 20
73.696999000000005
 30
0.0
 11
-110.584999
 21
73.617203000000003
 31
0.0
  0
LINE
  5
81D
  8
0
  6
CONTINUOUS
 10
-97.951697999999993
 20
72.735298
 30
0.0
 11
-97.872902000000011
 21
72.695601999999994
 31
0.0
  0
LINE
  5
81E
  8
0
  6
CONTINUOUS
 10
-97.872902000000011
 20
72.695601999999994
 30
0.0
 11
-97.851897999999991
 21
72.635398999999992
 31
0.0
  0
LINE
  5
81F
  8
0
  6
CONTINUOUS
 10
-94.315101999999996
 20
73.735802000000007
 30
0.0
 11
-94.226500999999999
 21
73.695503000000002
 31
0.0
  0
LINE
  5
820
  8
0
  6
CONTINUOUS
 10
-94.226500999999999
 20
73.695503000000002
 30
0.0
 11
-94.197502000000014
 21
73.639099000000002
 31
0.0
  0
LINE
  5
821
  8
0
  6
CONTINUOUS
 10
-9.6332899999999988
 20
12.443199999999999
 30
0.0
 11
-9.1614000000000004
 21
12.4138
 31
0.0
  0
LINE
  5
822
  8
0
  6
CONTINUOUS
 10
-9.6332899999999988
 20
12.443199999999999
 30
0.0
 11
-9.6858000000000004
 21
12.446099999999999
 31
0.0
  0
LINE
  5
823
  8
0
  6
CONTINUOUS
 10
-9.9043399999999995
 20
12.658799999999999
 30
0.0
 11
-9.854989999999999
 21
12.655900000000001
 31
0.0
  0
LINE
  5
824
  8
0
  6
CONTINUOUS
 10
-10.492900000000001
 20
12.6943
 30
0.0
 11
-9.9043299999999999
 21
12.658799999999999
 31
0.0
  0
LINE
  5
825
  8
0
  6
CONTINUOUS
 10
-8.3852799999999998
 20
12.567399999999999
 30
0.0
 11
-8.0431600000000003
 21
12.546799999999999
 31
0.0
  0
LINE
  5
826
  8
0
  6
CONTINUOUS
 10
-9.5259199999999993
 20
12.636100000000001
 30
0.0
 11
-8.9964999999999993
 21
12.604200000000001
 31
0.0
  0
LINE
  5
827
  8
0
  6
CONTINUOUS
 10
-9.6462599999999998
 20
12.6433
 30
0.0
 11
-9.854989999999999
 21
12.655900000000001
 31
0.0
  0
LINE
  5
828
  8
0
  6
CONTINUOUS
 10
-10.580299999999999
 20
12.4992
 30
0.0
 11
-10.713200000000001
 21
12.509
 31
0.0
  0
LINE
  5
829
  8
0
  6
CONTINUOUS
 10
-10.733599999999999
 20
12.5113
 30
0.0
 11
-10.8734
 21
12.5808
 31
0.0
  0
LINE
  5
82A
  8
0
  6
CONTINUOUS
 10
-10.8734
 20
12.5808
 30
0.0
 11
-10.9719
 21
12.723100000000001
 31
0.0
  0
LINE
  5
82B
  8
0
  6
CONTINUOUS
 10
-10.4779
 20
12.497
 30
0.0
 11
-10.576599999999999
 21
12.5589
 31
0.0
  0
LINE
  5
82C
  8
0
  6
CONTINUOUS
 10
-10.576599999999999
 20
12.5589
 30
0.0
 11
-10.642899999999999
 21
12.7033
 31
0.0
  0
LINE
  5
82D
  8
0
  6
CONTINUOUS
 10
-10.577199999999999
 20
12.501200000000001
 30
0.0
 11
-10.686199999999999
 21
12.5685
 31
0.0
  0
LINE
  5
82E
  8
0
  6
CONTINUOUS
 10
-10.686199999999999
 20
12.5685
 30
0.0
 11
-10.756399999999999
 21
12.710100000000001
 31
0.0
  0
LINE
  5
82F
  8
0
  6
CONTINUOUS
 10
8.0899900000000002
 20
14.562099999999999
 30
0.0
 11
8.2155000000000005
 21
14.609400000000001
 31
0.0
  0
LINE
  5
830
  8
0
  6
CONTINUOUS
 10
8.2155000000000005
 20
14.609400000000001
 30
0.0
 11
8.2810600000000001
 21
14.7142
 31
0.0
  0
LINE
  5
831
  8
0
  6
CONTINUOUS
 10
8.2810600000000001
 20
14.7142
 30
0.0
 11
8.2899600000000007
 21
14.7621
 31
0.0
  0
LINE
  5
832
  8
0
  6
CONTINUOUS
 10
-1.7215400000000001
 20
21.7348
 30
0.0
 11
-2.0175399999999999
 21
21.683201
 31
0.0
  0
LINE
  5
833
  8
0
  6
CONTINUOUS
 10
3.9906099999999989
 20
21.562099
 30
0.0
 11
3.8650999999999991
 21
21.514799
 31
0.0
  0
LINE
  5
834
  8
0
  6
CONTINUOUS
 10
3.8650999999999991
 20
21.514799
 30
0.0
 11
3.7995399999999999
 21
21.41
 31
0.0
  0
LINE
  5
835
  8
0
  6
CONTINUOUS
 10
3.7995399999999999
 20
21.41
 30
0.0
 11
3.7906399999999998
 21
21.362100999999999
 31
0.0
  0
LINE
  5
836
  8
0
  6
CONTINUOUS
 10
-2.0175399999999999
 20
21.683201
 30
0.0
 11
-2.5086300000000001
 21
21.649598999999998
 31
0.0
  0
LINE
  5
837
  8
0
  6
CONTINUOUS
 10
-2.5086300000000001
 20
21.649598999999998
 30
0.0
 11
-3.2582699999999991
 21
21.687201000000002
 31
0.0
  0
LINE
  5
838
  8
0
  6
CONTINUOUS
 10
-3.8956199999999992
 20
21.758101
 30
0.0
 11
-3.8569900000000001
 21
21.7682
 31
0.0
  0
LINE
  5
839
  8
0
  6
CONTINUOUS
 10
-3.8956199999999992
 20
21.758101
 30
0.0
 11
-4.3692399999999996
 21
21.7957
 31
0.0
  0
LINE
  5
83A
  8
0
  6
CONTINUOUS
 10
-4.3692399999999996
 20
21.7957
 30
0.0
 11
-4.7333299999999996
 21
21.747199999999999
 31
0.0
  0
LINE
  5
83B
  8
0
  6
CONTINUOUS
 10
-4.7333299999999996
 20
21.747199999999999
 30
0.0
 11
-5.0965499999999988
 21
21.616699000000001
 31
0.0
  0
LINE
  5
83C
  8
0
  6
CONTINUOUS
 10
-5.0965499999999988
 20
21.616699000000001
 30
0.0
 11
-5.4371299999999998
 21
21.409300000000002
 31
0.0
  0
LINE
  5
83D
  8
0
  6
CONTINUOUS
 10
-5.4371299999999998
 20
21.409300000000002
 30
0.0
 11
-5.7220500000000003
 21
21.146298999999999
 31
0.0
  0
LINE
  5
83E
  8
0
  6
CONTINUOUS
 10
-5.7220500000000003
 20
21.146298999999999
 30
0.0
 11
-5.9319499999999987
 21
20.850999999999999
 31
0.0
  0
LINE
  5
83F
  8
0
  6
CONTINUOUS
 10
-5.9319499999999987
 20
20.850999999999999
 30
0.0
 11
-6.07294
 21
20.549600999999999
 31
0.0
  0
LINE
  5
840
  8
0
  6
CONTINUOUS
 10
-3.2582699999999991
 20
21.687201000000002
 30
0.0
 11
-3.8241399999999999
 21
21.793900000000001
 31
0.0
  0
LINE
  5
841
  8
0
  6
CONTINUOUS
 10
-1.43079
 20
21.807400000000001
 30
0.0
 11
-1.7215400000000001
 21
21.7348
 31
0.0
  0
LINE
  5
842
  8
0
  6
CONTINUOUS
 10
-3.8614099999999989
 20
23.674101
 30
0.0
 11
-3.81141
 21
23.670400999999998
 31
0.0
  0
LINE
  5
843
  8
0
  6
CONTINUOUS
 10
-7.9247199999999989
 20
13.959899999999999
 30
0.0
 11
-7.934899999999999
 21
14.369300000000001
 31
0.0
  0
LINE
  5
844
  8
0
  6
CONTINUOUS
 10
-7.934899999999999
 20
14.369300000000001
 30
0.0
 11
-7.9314299999999998
 21
14.404400000000001
 31
0.0
  0
LINE
  5
845
  8
0
  6
CONTINUOUS
 10
-0.271644
 20
27.639199999999999
 30
0.0
 11
-0.250837
 21
27.645499999999998
 31
0.0
  0
LINE
  5
846
  8
0
  6
CONTINUOUS
 10
-0.271644
 20
27.639199999999999
 30
0.0
 11
-0.289079
 21
27.637198999999999
 31
0.0
  0
LINE
  5
847
  8
0
  6
CONTINUOUS
 10
-5.70228
 20
26.4314
 30
0.0
 11
-5.7416999999999989
 21
26.439501
 31
0.0
  0
LINE
  5
848
  8
0
  6
CONTINUOUS
 10
-7.9247199999999989
 20
13.959899999999999
 30
0.0
 11
-7.9238200000000001
 21
13.904299999999999
 31
0.0
  0
LINE
  5
849
  8
0
  6
CONTINUOUS
 10
-7.9337799999999996
 20
14.513
 30
0.0
 11
-7.9314299999999998
 21
14.404400000000001
 31
0.0
  0
LINE
  5
84A
  8
0
  6
CONTINUOUS
 10
-10.9719
 20
12.723100000000001
 30
0.0
 11
-10.7483
 21
14.666499999999999
 31
0.0
  0
LINE
  5
84B
  8
0
  6
CONTINUOUS
 10
-10.7483
 20
14.666499999999999
 30
0.0
 11
-10.5227
 21
16.032900000000001
 31
0.0
  0
LINE
  5
84C
  8
0
  6
CONTINUOUS
 10
-10.5227
 20
16.032900000000001
 30
0.0
 11
-10.210000000000001
 21
17.432199000000001
 31
0.0
  0
LINE
  5
84D
  8
0
  6
CONTINUOUS
 10
-10.210000000000001
 20
17.432199000000001
 30
0.0
 11
-9.8386200000000006
 21
18.735201
 31
0.0
  0
LINE
  5
84E
  8
0
  6
CONTINUOUS
 10
-9.8386200000000006
 20
18.735201
 30
0.0
 11
-9.3797999999999995
 21
20.0518
 31
0.0
  0
LINE
  5
84F
  8
0
  6
CONTINUOUS
 10
-9.3797999999999995
 20
20.0518
 30
0.0
 11
-8.8613999999999997
 21
21.321199
 31
0.0
  0
LINE
  5
850
  8
0
  6
CONTINUOUS
 10
-8.8613999999999997
 20
21.321199
 30
0.0
 11
-8.1527999999999992
 21
22.813400000000001
 31
0.0
  0
LINE
  5
851
  8
0
  6
CONTINUOUS
 10
-8.1527999999999992
 20
22.813400000000001
 30
0.0
 11
-7.9113100000000003
 21
23.290299999999998
 31
0.0
  0
LINE
  5
852
  8
0
  6
CONTINUOUS
 10
-5.6854500000000003
 20
26.360299999999999
 30
0.0
 11
-5.7019399999999996
 21
26.429898999999999
 31
0.0
  0
LINE
  5
853
  8
0
  6
CONTINUOUS
 10
-7.9238200000000001
 20
13.904299999999999
 30
0.0
 11
-7.9899800000000001
 21
12.586600000000001
 31
0.0
  0
LINE
  5
854
  8
0
  6
CONTINUOUS
 10
-7.9899800000000001
 20
12.586600000000001
 30
0.0
 11
-7.9934599999999998
 21
12.543799999999999
 31
0.0
  0
LINE
  5
855
  8
0
  6
CONTINUOUS
 10
-5.6078000000000001
 20
26.293399999999998
 30
0.0
 11
-5.6093999999999991
 21
26.283701000000001
 31
0.0
  0
LINE
  5
856
  8
0
  6
CONTINUOUS
 10
-5.630069999999999
 20
26.416799999999999
 30
0.0
 11
-5.6303099999999988
 21
26.404900000000001
 31
0.0
  0
LINE
  5
857
  8
0
  6
CONTINUOUS
 10
-8.2545500000000001
 20
24.141000999999999
 30
0.0
 11
-8.2490600000000001
 21
24.101400000000002
 31
0.0
  0
LINE
  5
858
  8
0
  6
CONTINUOUS
 10
-3.8236400000000001
 20
21.7943
 30
0.0
 11
-3.82239
 21
23.059601000000001
 31
0.0
  0
LINE
  5
859
  8
0
  6
CONTINUOUS
 10
-6.07294
 20
20.549600999999999
 30
0.0
 11
-6.1302000000000003
 21
20.256799999999998
 31
0.0
  0
LINE
  5
85A
  8
0
  6
CONTINUOUS
 10
-6.1302000000000003
 20
20.256799999999998
 30
0.0
 11
-6.099759999999999
 21
19.9529
 31
0.0
  0
LINE
  5
85B
  8
0
  6
CONTINUOUS
 10
-8.1542700000000004
 20
24.437201000000002
 30
0.0
 11
-8.2545500000000001
 21
24.141000999999999
 31
0.0
  0
LINE
  5
85C
  8
0
  6
CONTINUOUS
 10
-0.208645
 20
32.133301000000003
 30
0.0
 11
0.680926
 21
29.395299999999999
 31
0.0
  0
LINE
  5
85D
  8
0
  6
CONTINUOUS
 10
0.779232
 20
29.085501000000001
 30
0.0
 11
0.7651720000000001
 21
29.137899000000001
 31
0.0
  0
LINE
  5
85E
  8
0
  6
CONTINUOUS
 10
0.788748
 20
29.017599000000001
 30
0.0
 11
0.7900020000000002
 21
29.0322
 31
0.0
  0
LINE
  5
85F
  8
0
  6
CONTINUOUS
 10
0.788828
 20
29.017799
 30
0.0
 11
0.7900020000000002
 21
29.032
 31
0.0
  0
LINE
  5
860
  8
0
  6
CONTINUOUS
 10
-6.6859899999999994
 20
18.586901000000001
 30
0.0
 11
-7.48576
 21
16.269199
 31
0.0
  0
LINE
  5
861
  8
0
  6
CONTINUOUS
 10
-7.48576
 20
16.269199
 30
0.0
 11
-7.9158699999999991
 21
15.075100000000001
 31
0.0
  0
LINE
  5
862
  8
0
  6
CONTINUOUS
 10
-7.9158699999999991
 20
15.075100000000001
 30
0.0
 11
-7.9424899999999994
 21
14.7704
 31
0.0
  0
LINE
  5
863
  8
0
  6
CONTINUOUS
 10
-7.9424899999999994
 20
14.7704
 30
0.0
 11
-7.9337799999999996
 21
14.513
 31
0.0
  0
LINE
  5
864
  8
0
  6
CONTINUOUS
 10
-5.6248800000000001
 20
26.244900000000001
 30
0.0
 11
-5.6769899999999991
 21
26.169398999999999
 31
0.0
  0
LINE
  5
865
  8
0
  6
CONTINUOUS
 10
-7.3149399999999991
 20
24.003
 30
0.0
 11
-7.6455899999999994
 21
23.562000000000001
 31
0.0
  0
LINE
  5
866
  8
0
  6
CONTINUOUS
 10
-7.6455899999999994
 20
23.562000000000001
 30
0.0
 11
-7.7983899999999986
 21
23.398700999999999
 31
0.0
  0
LINE
  5
867
  8
0
  6
CONTINUOUS
 10
3.7906399999999998
 20
14.7621
 30
0.0
 11
3.8379500000000002
 21
14.6366
 31
0.0
  0
LINE
  5
868
  8
0
  6
CONTINUOUS
 10
3.8379500000000002
 20
14.6366
 30
0.0
 11
3.9426899999999998
 21
14.571
 31
0.0
  0
LINE
  5
869
  8
0
  6
CONTINUOUS
 10
3.9426899999999998
 20
14.571
 30
0.0
 11
3.9906099999999989
 21
14.562099999999999
 31
0.0
  0
LINE
  5
86A
  8
0
  6
CONTINUOUS
 10
-3.3346
 20
25.104799
 30
0.0
 11
-3.5834000000000001
 21
24.470800000000001
 31
0.0
  0
LINE
  5
86B
  8
0
  6
CONTINUOUS
 10
-3.5834000000000001
 20
24.470800000000001
 30
0.0
 11
-3.75753
 21
23.813700000000001
 31
0.0
  0
LINE
  5
86C
  8
0
  6
CONTINUOUS
 10
-3.75753
 20
23.813700000000001
 30
0.0
 11
-3.785299999999999
 21
23.667299
 31
0.0
  0
LINE
  5
86D
  8
0
  6
CONTINUOUS
 10
-0.783832
 20
27.323298999999999
 30
0.0
 11
-0.7741350000000001
 21
27.3384
 31
0.0
  0
LINE
  5
86E
  8
0
  6
CONTINUOUS
 10
-0.196939
 20
32.295799000000002
 30
0.0
 11
-0.212325
 21
32.241199000000002
 31
0.0
  0
LINE
  5
86F
  8
0
  6
CONTINUOUS
 10
-7.9095800000000001
 20
23.292899999999999
 30
0.0
 11
-7.9113100000000003
 21
23.290299999999998
 31
0.0
  0
LINE
  5
870
  8
0
  6
CONTINUOUS
 10
-6.4540800000000003
 20
25.892401
 30
0.0
 11
-6.5337800000000001
 21
25.7973
 31
0.0
  0
LINE
  5
871
  8
0
  6
CONTINUOUS
 10
-5.6849499999999988
 20
26.160298999999998
 30
0.0
 11
-6.5563299999999991
 21
25.065901
 31
0.0
  0
LINE
  5
872
  8
0
  6
CONTINUOUS
 10
-6.5563299999999991
 20
25.065901
 30
0.0
 11
-7.3149300000000004
 21
24.003
 31
0.0
  0
LINE
  5
873
  8
0
  6
CONTINUOUS
 10
-6.5337800000000001
 20
25.7973
 30
0.0
 11
-6.8414699999999993
 21
25.492100000000001
 31
0.0
  0
LINE
  5
874
  8
0
  6
CONTINUOUS
 10
-5.613929999999999
 20
26.449400000000001
 30
0.0
 11
-4.8033400000000004
 21
27.270700000000001
 31
0.0
  0
LINE
  5
875
  8
0
  6
CONTINUOUS
 10
-4.8033400000000004
 20
27.270700000000001
 30
0.0
 11
-3.9466499999999991
 21
28.025499
 31
0.0
  0
LINE
  5
876
  8
0
  6
CONTINUOUS
 10
-3.9466499999999991
 20
28.025499
 30
0.0
 11
-3.039369999999999
 21
28.718599000000001
 31
0.0
  0
LINE
  5
877
  8
0
  6
CONTINUOUS
 10
-3.039369999999999
 20
28.718599000000001
 30
0.0
 11
-1.156639999999999
 21
29.9727
 31
0.0
  0
LINE
  5
878
  8
0
  6
CONTINUOUS
 10
-1.156639999999999
 20
29.9727
 30
0.0
 11
-0.162305
 21
30.567399999999999
 31
0.0
  0
LINE
  5
879
  8
0
  6
CONTINUOUS
 10
-3.1433800000000001
 20
25.414400000000001
 30
0.0
 11
-3.3345899999999991
 21
25.104799
 31
0.0
  0
LINE
  5
87A
  8
0
  6
CONTINUOUS
 10
-5.7416700000000001
 20
26.439501
 30
0.0
 11
-6.4540800000000003
 21
25.892401
 31
0.0
  0
LINE
  5
87B
  8
0
  6
CONTINUOUS
 10
8.2899600000000007
 20
21.362100999999999
 30
0.0
 11
8.2426499999999994
 21
21.4876
 31
0.0
  0
LINE
  5
87C
  8
0
  6
CONTINUOUS
 10
8.2426499999999994
 20
21.4876
 30
0.0
 11
8.1379099999999998
 21
21.5532
 31
0.0
  0
LINE
  5
87D
  8
0
  6
CONTINUOUS
 10
8.1379099999999998
 20
21.5532
 30
0.0
 11
8.0899900000000002
 21
21.562099
 31
0.0
  0
LINE
  5
87E
  8
0
  6
CONTINUOUS
 10
-7.9934599999999998
 20
12.543799999999999
 30
0.0
 11
-8.1178699999999981
 21
12.4063
 31
0.0
  0
LINE
  5
87F
  8
0
  6
CONTINUOUS
 10
-8.1178699999999981
 20
12.4063
 30
0.0
 11
-8.2613500000000002
 21
12.365399999999999
 31
0.0
  0
LINE
  5
880
  8
0
  6
CONTINUOUS
 10
-8.2613500000000002
 20
12.365399999999999
 30
0.0
 11
-8.3548600000000004
 21
12.3652
 31
0.0
  0
LINE
  5
881
  8
0
  6
CONTINUOUS
 10
-0.7986439999999999
 20
27.307500999999998
 30
0.0
 11
-0.783832
 21
27.323298999999999
 31
0.0
  0
LINE
  5
882
  8
0
  6
CONTINUOUS
 10
0.7862210000000001
 20
29.3643
 30
0.0
 11
0.7900020000000002
 21
29.378299999999999
 31
0.0
  0
LINE
  5
883
  8
0
  6
CONTINUOUS
 10
-0.79865
 20
27.307500999999998
 30
0.0
 11
-1.9910499999999991
 21
26.511600000000001
 31
0.0
  0
LINE
  5
884
  8
0
  6
CONTINUOUS
 10
-1.9910499999999991
 20
26.511600000000001
 30
0.0
 11
-2.575429999999999
 21
26.046301
 31
0.0
  0
LINE
  5
885
  8
0
  6
CONTINUOUS
 10
-2.575429999999999
 20
26.046301
 30
0.0
 11
-2.9606499999999989
 21
25.648299999999999
 31
0.0
  0
LINE
  5
886
  8
0
  6
CONTINUOUS
 10
-2.9606499999999989
 20
25.648299999999999
 30
0.0
 11
-3.1434799999999989
 21
25.414498999999999
 31
0.0
  0
LINE
  5
887
  8
0
  6
CONTINUOUS
 10
-5.7104299999999997
 20
26.308299999999999
 30
0.0
 11
-5.6713899999999988
 21
26.3018
 31
0.0
  0
LINE
  5
888
  8
0
  6
CONTINUOUS
 10
-6.3892800000000003
 20
19.019501000000002
 30
0.0
 11
-6.5988499999999988
 21
18.784500000000001
 31
0.0
  0
LINE
  5
889
  8
0
  6
CONTINUOUS
 10
-6.5988499999999988
 20
18.784500000000001
 30
0.0
 11
-6.6859899999999994
 21
18.586901000000001
 31
0.0
  0
LINE
  5
88A
  8
0
  6
CONTINUOUS
 10
0.7900020000000002
 20
28.257401000000002
 30
0.0
 11
-0.250848
 21
27.645499999999998
 31
0.0
  0
LINE
  5
88B
  8
0
  6
CONTINUOUS
 10
0.7900020000000002
 20
22.828299999999999
 30
0.0
 11
-0.7349290000000001
 21
22.071698999999999
 31
0.0
  0
LINE
  5
88C
  8
0
  6
CONTINUOUS
 10
-0.7349290000000001
 20
22.071698999999999
 30
0.0
 11
-1.43079
 21
21.807400000000001
 31
0.0
  0
LINE
  5
88D
  8
0
  6
CONTINUOUS
 10
2.9028299999999989
 20
-42.777999999999999
 30
0.0
 11
2.6773299999999991
 21
-42.652999999999992
 31
0.0
  0
LINE
  5
88E
  8
0
  6
CONTINUOUS
 10
2.6773299999999991
 20
-42.652999999999992
 30
0.0
 11
2.5158700000000001
 21
-42.479801000000002
 31
0.0
  0
LINE
  5
88F
  8
0
  6
CONTINUOUS
 10
2.5158700000000001
 20
-42.479801000000002
 30
0.0
 11
2.3715899999999999
 21
-42.197899
 31
0.0
  0
LINE
  5
890
  8
0
  6
CONTINUOUS
 10
2.3715899999999999
 20
-42.197899
 30
0.0
 11
2.2351399999999999
 21
-41.712398999999991
 31
0.0
  0
LINE
  5
891
  8
0
  6
CONTINUOUS
 10
2.2351399999999999
 20
-41.712398999999991
 30
0.0
 11
2.0935000000000001
 21
-40.821601999999992
 31
0.0
  0
LINE
  5
892
  8
0
  6
CONTINUOUS
 10
2.0935000000000001
 20
-40.821601999999992
 30
0.0
 11
1.9655599999999991
 21
-39.390900000000002
 31
0.0
  0
LINE
  5
893
  8
0
  6
CONTINUOUS
 10
1.9655599999999991
 20
-39.390900000000002
 30
0.0
 11
1.8875900000000001
 21
-37.531601000000002
 31
0.0
  0
LINE
  5
894
  8
0
  6
CONTINUOUS
 10
1.8875900000000001
 20
-37.531601000000002
 30
0.0
 11
1.8696099999999991
 21
-36.220298999999997
 31
0.0
  0
LINE
  5
895
  8
0
  6
CONTINUOUS
 10
4.1932599999999987
 20
-41.841498999999999
 30
0.0
 11
3.954899999999999
 21
-41.768397999999991
 31
0.0
  0
LINE
  5
896
  8
0
  6
CONTINUOUS
 10
3.954899999999999
 20
-41.768397999999991
 30
0.0
 11
3.756019999999999
 21
-41.620800000000003
 31
0.0
  0
LINE
  5
897
  8
0
  6
CONTINUOUS
 10
3.756019999999999
 20
-41.620800000000003
 30
0.0
 11
3.6023099999999988
 21
-41.39709899999999
 31
0.0
  0
LINE
  5
898
  8
0
  6
CONTINUOUS
 10
3.6023099999999988
 20
-41.39709899999999
 30
0.0
 11
3.4732799999999999
 21
-41.041697999999997
 31
0.0
  0
LINE
  5
899
  8
0
  6
CONTINUOUS
 10
3.4732799999999999
 20
-41.041697999999997
 30
0.0
 11
3.3420699999999992
 21
-40.363200999999997
 31
0.0
  0
LINE
  5
89A
  8
0
  6
CONTINUOUS
 10
3.3420699999999992
 20
-40.363200999999997
 30
0.0
 11
3.2195999999999989
 21
-39.191798999999989
 31
0.0
  0
LINE
  5
89B
  8
0
  6
CONTINUOUS
 10
3.2195999999999989
 20
-39.191798999999989
 30
0.0
 11
3.1379700000000001
 21
-37.538398999999998
 31
0.0
  0
LINE
  5
89C
  8
0
  6
CONTINUOUS
 10
3.1379700000000001
 20
-37.538398999999998
 30
0.0
 11
3.115629999999999
 21
-35.926102
 31
0.0
  0
LINE
  5
89D
  8
0
  6
CONTINUOUS
 10
2.9028299999999989
 20
-42.777999999999999
 30
0.0
 11
3.1530999999999989
 21
-42.809199999999997
 31
0.0
  0
LINE
  5
89E
  8
0
  6
CONTINUOUS
 10
3.1530999999999989
 20
-42.809199999999997
 30
0.0
 11
3.380199999999999
 21
-42.758498999999993
 31
0.0
  0
LINE
  5
89F
  8
0
  6
CONTINUOUS
 10
3.380199999999999
 20
-42.758498999999993
 30
0.0
 11
3.582619999999999
 21
-42.633099000000001
 31
0.0
  0
LINE
  5
8A0
  8
0
  6
CONTINUOUS
 10
3.582619999999999
 20
-42.633099000000001
 30
0.0
 11
3.7529400000000002
 21
-42.430301999999998
 31
0.0
  0
LINE
  5
8A1
  8
0
  6
CONTINUOUS
 10
3.7529400000000002
 20
-42.430301999999998
 30
0.0
 11
3.8924799999999999
 21
-42.1203
 31
0.0
  0
LINE
  5
8A2
  8
0
  6
CONTINUOUS
 10
3.8924799999999999
 20
-42.1203
 30
0.0
 11
3.9870299999999999
 21
-41.786200999999991
 31
0.0
  0
LINE
  5
8A3
  8
0
  6
CONTINUOUS
 10
3.5499299999999998
 20
-41.782001000000001
 30
0.0
 11
3.432599999999999
 21
-41.327801000000001
 31
0.0
  0
LINE
  5
8A4
  8
0
  6
CONTINUOUS
 10
3.432599999999999
 20
-41.327801000000001
 30
0.0
 11
3.2980699999999992
 21
-40.348300999999992
 31
0.0
  0
LINE
  5
8A5
  8
0
  6
CONTINUOUS
 10
3.2980699999999992
 20
-40.348300999999992
 30
0.0
 11
3.184899999999999
 21
-38.811798000000003
 31
0.0
  0
LINE
  5
8A6
  8
0
  6
CONTINUOUS
 10
3.184899999999999
 20
-38.811798000000003
 30
0.0
 11
3.1345299999999989
 21
-37.510100999999999
 31
0.0
  0
LINE
  5
8A7
  8
0
  6
CONTINUOUS
 10
4.1932599999999987
 20
-41.841498999999999
 30
0.0
 11
4.440529999999999
 21
-41.819901000000002
 31
0.0
  0
LINE
  5
8A8
  8
0
  6
CONTINUOUS
 10
4.440529999999999
 20
-41.819901000000002
 30
0.0
 11
4.6514300000000004
 21
-41.722999999999992
 31
0.0
  0
LINE
  5
8A9
  8
0
  6
CONTINUOUS
 10
4.6514300000000004
 20
-41.722999999999992
 30
0.0
 11
4.8324999999999987
 21
-41.550201000000001
 31
0.0
  0
LINE
  5
8AA
  8
0
  6
CONTINUOUS
 10
4.8324999999999987
 20
-41.550201000000001
 30
0.0
 11
4.9757400000000001
 21
-41.289000999999999
 31
0.0
  0
LINE
  5
8AB
  8
0
  6
CONTINUOUS
 10
4.9757400000000001
 20
-41.289000999999999
 30
0.0
 11
5.1057300000000003
 21
-40.833801000000001
 31
0.0
  0
LINE
  5
8AC
  8
0
  6
CONTINUOUS
 10
5.1057300000000003
 20
-40.833801000000001
 30
0.0
 11
5.2361800000000001
 21
-39.983100999999998
 31
0.0
  0
LINE
  5
8AD
  8
0
  6
CONTINUOUS
 10
5.2361800000000001
 20
-39.983100999999998
 30
0.0
 11
5.3483700000000001
 21
-38.601002000000001
 31
0.0
  0
LINE
  5
8AE
  8
0
  6
CONTINUOUS
 10
5.3483700000000001
 20
-38.601002000000001
 30
0.0
 11
5.4078099999999987
 21
-36.718299999999999
 31
0.0
  0
LINE
  5
8AF
  8
0
  6
CONTINUOUS
 10
5.4078099999999987
 20
-36.718299999999999
 30
0.0
 11
5.4138099999999989
 21
-35.926102
 31
0.0
  0
LINE
  5
8B0
  8
0
  6
CONTINUOUS
 10
4.7169999999999987
 20
-40.8354
 30
0.0
 11
4.6054199999999987
 21
-40.35419799999999
 31
0.0
  0
LINE
  5
8B1
  8
0
  6
CONTINUOUS
 10
4.6054199999999987
 20
-40.35419799999999
 30
0.0
 11
4.4847700000000001
 21
-39.330798999999999
 31
0.0
  0
LINE
  5
8B2
  8
0
  6
CONTINUOUS
 10
4.4847700000000001
 20
-39.330798999999999
 30
0.0
 11
4.3962199999999987
 21
-37.781399
 31
0.0
  0
LINE
  5
8B3
  8
0
  6
CONTINUOUS
 10
4.3962199999999987
 20
-37.781399
 30
0.0
 11
4.3646599999999989
 21
-35.926102
 31
0.0
  0
LINE
  5
8B4
  8
0
  6
CONTINUOUS
 10
-100.96199799999999
 20
12.7095
 30
0.0
 11
-100.724998
 21
12.727399999999999
 31
0.0
  0
LINE
  5
8B5
  8
0
  6
CONTINUOUS
 10
-100.724998
 20
12.727399999999999
 30
0.0
 11
-100.614998
 21
12.7095
 31
0.0
  0
LINE
  5
8B6
  8
0
  6
CONTINUOUS
 10
-100.96199799999999
 20
12.7095
 30
0.0
 11
-100.98699999999999
 21
12.7095
 31
0.0
  0
LINE
  5
8B7
  8
0
  6
CONTINUOUS
 10
-100.720001
 20
12.9032
 30
0.0
 11
-100.46399700000001
 21
12.8521
 31
0.0
  0
LINE
  5
8B8
  8
0
  6
CONTINUOUS
 10
-100.716003
 20
12.917899999999999
 30
0.0
 11
-100.459999
 21
12.8668
 31
0.0
  0
LINE
  5
8B9
  8
0
  6
CONTINUOUS
 10
-100.412003
 20
12.894500000000001
 30
0.0
 11
-100.589996
 21
12.912000000000001
 31
0.0
  0
LINE
  5
8BA
  8
0
  6
CONTINUOUS
 10
-100.790001
 20
12.862500000000001
 30
0.0
 11
-100.391998
 21
12.8101
 31
0.0
  0
LINE
  5
8BB
  8
0
  6
CONTINUOUS
 10
-100.790001
 20
12.7525
 30
0.0
 11
-100.75599699999999
 21
12.742100000000001
 31
0.0
  0
LINE
  5
8BC
  8
0
  6
CONTINUOUS
 10
-100.720001
 20
12.793200000000001
 30
0.0
 11
-100.46399700000001
 21
12.742100000000001
 31
0.0
  0
LINE
  5
8BD
  8
0
  6
CONTINUOUS
 10
-100.716003
 20
12.8079
 30
0.0
 11
-100.459999
 21
12.7568
 31
0.0
  0
LINE
  5
8BE
  8
0
  6
CONTINUOUS
 10
-100.389999
 20
12.797499999999999
 30
0.0
 11
-100.78800200000001
 21
12.8499
 31
0.0
  0
LINE
  5
8BF
  8
0
  6
CONTINUOUS
 10
-100.21700300000001
 20
12.7095
 30
0.0
 11
-100.45500199999999
 21
12.727399999999999
 31
0.0
  0
LINE
  5
8C0
  8
0
  6
CONTINUOUS
 10
-100.45500199999999
 20
12.727399999999999
 30
0.0
 11
-100.56500200000001
 21
12.7095
 31
0.0
  0
LINE
  5
8C1
  8
0
  6
CONTINUOUS
 10
-100.21700300000001
 20
12.7095
 30
0.0
 11
-100.192001
 21
12.7095
 31
0.0
  0
LINE
  5
8C2
  8
0
  6
CONTINUOUS
 10
-100.78800200000001
 20
12.1899
 30
0.0
 11
-100.75599699999999
 21
12.1821
 31
0.0
  0
LINE
  5
8C3
  8
0
  6
CONTINUOUS
 10
-100.668999
 20
12.1821
 30
0.0
 11
-100.790001
 21
12.2021
 31
0.0
  0
LINE
  5
8C4
  8
0
  6
CONTINUOUS
 10
-100.49900100000001
 20
12.202
 30
0.0
 11
-100.462997
 21
12.191599999999999
 31
0.0
  0
LINE
  5
8C5
  8
0
  6
CONTINUOUS
 10
-106.644997
 20
12.9033
 30
0.0
 11
-106.389
 21
12.8521
 31
0.0
  0
LINE
  5
8C6
  8
0
  6
CONTINUOUS
 10
-106.64099899999999
 20
12.917899999999999
 30
0.0
 11
-106.385002
 21
12.866899999999999
 31
0.0
  0
LINE
  5
8C7
  8
0
  6
CONTINUOUS
 10
-106.33699799999999
 20
12.894500000000001
 30
0.0
 11
-106.514999
 21
12.912000000000001
 31
0.0
  0
LINE
  5
8C8
  8
0
  6
CONTINUOUS
 10
-106.714996
 20
12.862500000000001
 30
0.0
 11
-106.317001
 21
12.8101
 31
0.0
  0
LINE
  5
8C9
  8
0
  6
CONTINUOUS
 10
-106.714996
 20
12.7525
 30
0.0
 11
-106.681
 21
12.742100000000001
 31
0.0
  0
LINE
  5
8CA
  8
0
  6
CONTINUOUS
 10
-106.644997
 20
12.7933
 30
0.0
 11
-106.389
 21
12.742100000000001
 31
0.0
  0
LINE
  5
8CB
  8
0
  6
CONTINUOUS
 10
-106.64099899999999
 20
12.8079
 30
0.0
 11
-106.385002
 21
12.7568
 31
0.0
  0
LINE
  5
8CC
  8
0
  6
CONTINUOUS
 10
-106.31500200000001
 20
12.797499999999999
 30
0.0
 11
-106.712997
 21
12.8499
 31
0.0
  0
LINE
  5
8CD
  8
0
  6
CONTINUOUS
 10
-106.540001
 20
12.7095
 30
0.0
 11
-106.781998
 21
12.726800000000001
 31
0.0
  0
LINE
  5
8CE
  8
0
  6
CONTINUOUS
 10
-106.781998
 20
12.726800000000001
 30
0.0
 11
-106.80999799999999
 21
12.7234
 31
0.0
  0
LINE
  5
8CF
  8
0
  6
CONTINUOUS
 10
-106.141998
 20
12.7095
 30
0.0
 11
-106.379997
 21
12.727399999999999
 31
0.0
  0
LINE
  5
8D0
  8
0
  6
CONTINUOUS
 10
-106.379997
 20
12.727399999999999
 30
0.0
 11
-106.489998
 21
12.7095
 31
0.0
  0
LINE
  5
8D1
  8
0
  6
CONTINUOUS
 10
-106.141998
 20
12.7095
 30
0.0
 11
-106.116997
 21
12.7095
 31
0.0
  0
LINE
  5
8D2
  8
0
  6
CONTINUOUS
 10
-106.712997
 20
12.1899
 30
0.0
 11
-106.681
 21
12.1821
 31
0.0
  0
LINE
  5
8D3
  8
0
  6
CONTINUOUS
 10
-106.594002
 20
12.1821
 30
0.0
 11
-106.714996
 21
12.2021
 31
0.0
  0
LINE
  5
8D4
  8
0
  6
CONTINUOUS
 10
-106.424004
 20
12.202
 30
0.0
 11
-106.38800000000001
 21
12.191599999999999
 31
0.0
  0
LINE
  5
8D5
  8
0
  6
CONTINUOUS
 10
-108.098
 20
-36.400002000000001
 30
0.0
 11
-108.06300400000001
 21
-37.021301000000001
 31
0.0
  0
LINE
  5
8D6
  8
0
  6
CONTINUOUS
 10
-108.06300400000001
 20
-37.021301000000001
 30
0.0
 11
-107.960999
 21
-37.634998000000003
 31
0.0
  0
LINE
  5
8D7
  8
0
  6
CONTINUOUS
 10
-107.960999
 20
-37.634998000000003
 30
0.0
 11
-107.792
 21
-38.233601
 31
0.0
  0
LINE
  5
8D8
  8
0
  6
CONTINUOUS
 10
-107.792
 20
-38.233601
 30
0.0
 11
-107.557999
 21
-38.809699999999999
 31
0.0
  0
LINE
  5
8D9
  8
0
  6
CONTINUOUS
 10
-107.557999
 20
-38.809699999999999
 30
0.0
 11
-107.23699999999999
 21
-39.396999000000001
 31
0.0
  0
LINE
  5
8DA
  8
0
  6
CONTINUOUS
 10
-107.23699999999999
 20
-39.396999000000001
 30
0.0
 11
-106.878998
 21
-39.904400000000003
 31
0.0
  0
LINE
  5
8DB
  8
0
  6
CONTINUOUS
 10
-106.878998
 20
-39.904400000000003
 30
0.0
 11
-106.432999
 21
-40.402698999999998
 31
0.0
  0
LINE
  5
8DC
  8
0
  6
CONTINUOUS
 10
-106.432999
 20
-40.402698999999998
 30
0.0
 11
-105.969002
 21
-40.814799999999991
 31
0.0
  0
LINE
  5
8DD
  8
0
  6
CONTINUOUS
 10
-105.969002
 20
-40.814799999999991
 30
0.0
 11
-105.421997
 21
-41.197898999999992
 31
0.0
  0
LINE
  5
8DE
  8
0
  6
CONTINUOUS
 10
-105.421997
 20
-41.197898999999992
 30
0.0
 11
-105.089996
 21
-41.386600000000001
 31
0.0
  0
LINE
  5
8DF
  8
0
  6
CONTINUOUS
 10
-106.848
 20
-36.400002000000001
 30
0.0
 11
-106.80999799999999
 21
-36.972197999999999
 31
0.0
  0
LINE
  5
8E0
  8
0
  6
CONTINUOUS
 10
-106.80999799999999
 20
-36.972197999999999
 30
0.0
 11
-106.69899700000001
 21
-37.534599
 31
0.0
  0
LINE
  5
8E1
  8
0
  6
CONTINUOUS
 10
-106.69899700000001
 20
-37.534599
 30
0.0
 11
-106.514999
 21
-38.077499000000003
 31
0.0
  0
LINE
  5
8E2
  8
0
  6
CONTINUOUS
 10
-106.514999
 20
-38.077499000000003
 30
0.0
 11
-106.26300000000001
 21
-38.591599000000002
 31
0.0
  0
LINE
  5
8E3
  8
0
  6
CONTINUOUS
 10
-106.26300000000001
 20
-38.591599000000002
 30
0.0
 11
-105.945999
 21
-39.068001000000002
 31
0.0
  0
LINE
  5
8E4
  8
0
  6
CONTINUOUS
 10
-105.945999
 20
-39.068001000000002
 30
0.0
 11
-105.569
 21
-39.49860000000001
 31
0.0
  0
LINE
  5
8E5
  8
0
  6
CONTINUOUS
 10
-105.569
 20
-39.49860000000001
 30
0.0
 11
-105.139999
 21
-39.875900000000001
 31
0.0
  0
LINE
  5
8E6
  8
0
  6
CONTINUOUS
 10
-105.139999
 20
-39.875900000000001
 30
0.0
 11
-104.666
 21
-40.193600000000004
 31
0.0
  0
LINE
  5
8E7
  8
0
  6
CONTINUOUS
 10
-104.666
 20
-40.193600000000004
 30
0.0
 11
-104.153999
 21
-40.445999
 31
0.0
  0
LINE
  5
8E8
  8
0
  6
CONTINUOUS
 10
-104.153999
 20
-40.445999
 30
0.0
 11
-104.078003
 21
-40.476500999999999
 31
0.0
  0
LINE
  5
8E9
  8
0
  6
CONTINUOUS
 10
-102.943001
 20
-36.627200999999999
 30
0.0
 11
-103.001999
 21
-37.438000000000002
 31
0.0
  0
LINE
  5
8EA
  8
0
  6
CONTINUOUS
 10
-103.001999
 20
-37.438000000000002
 30
0.0
 11
-103.13099699999999
 21
-38.203999000000003
 31
0.0
  0
LINE
  5
8EB
  8
0
  6
CONTINUOUS
 10
-103.13099699999999
 20
-38.203999000000003
 30
0.0
 11
-103.324997
 21
-38.9161
 31
0.0
  0
LINE
  5
8EC
  8
0
  6
CONTINUOUS
 10
-103.324997
 20
-38.9161
 30
0.0
 11
-103.579002
 21
-39.569302
 31
0.0
  0
LINE
  5
8ED
  8
0
  6
CONTINUOUS
 10
-103.579002
 20
-39.569302
 30
0.0
 11
-103.87400100000001
 21
-40.131599000000001
 31
0.0
  0
LINE
  5
8EE
  8
0
  6
CONTINUOUS
 10
-103.87400100000001
 20
-40.131599000000001
 30
0.0
 11
-104.210999
 21
-40.615001999999997
 31
0.0
  0
LINE
  5
8EF
  8
0
  6
CONTINUOUS
 10
-104.210999
 20
-40.615001999999997
 30
0.0
 11
-104.55999799999999
 21
-40.9925
 31
0.0
  0
LINE
  5
8F0
  8
0
  6
CONTINUOUS
 10
-104.55999799999999
 20
-40.9925
 30
0.0
 11
-104.932999
 21
-41.28779999999999
 31
0.0
  0
LINE
  5
8F1
  8
0
  6
CONTINUOUS
 10
-104.932999
 20
-41.28779999999999
 30
0.0
 11
-105.308998
 21
-41.488799999999998
 31
0.0
  0
LINE
  5
8F2
  8
0
  6
CONTINUOUS
 10
-105.308998
 20
-41.488799999999998
 30
0.0
 11
-105.67600299999999
 21
-41.599498999999987
 31
0.0
  0
LINE
  5
8F3
  8
0
  6
CONTINUOUS
 10
-105.67600299999999
 20
-41.599498999999987
 30
0.0
 11
-106.049004
 21
-41.629902000000001
 31
0.0
  0
LINE
  5
8F4
  8
0
  6
CONTINUOUS
 10
-106.049004
 20
-41.629902000000001
 30
0.0
 11
-106.41799899999999
 21
-41.580601000000001
 31
0.0
  0
LINE
  5
8F5
  8
0
  6
CONTINUOUS
 10
-106.41799899999999
 20
-41.580601000000001
 30
0.0
 11
-106.77600099999999
 21
-41.455600999999987
 31
0.0
  0
LINE
  5
8F6
  8
0
  6
CONTINUOUS
 10
-106.77600099999999
 20
-41.455600999999987
 30
0.0
 11
-107.158997
 21
-41.230701000000003
 31
0.0
  0
LINE
  5
8F7
  8
0
  6
CONTINUOUS
 10
-107.158997
 20
-41.230701000000003
 30
0.0
 11
-107.51799800000001
 21
-40.9268
 31
0.0
  0
LINE
  5
8F8
  8
0
  6
CONTINUOUS
 10
-107.51799800000001
 20
-40.9268
 30
0.0
 11
-107.88200399999999
 21
-40.508597999999999
 31
0.0
  0
LINE
  5
8F9
  8
0
  6
CONTINUOUS
 10
-107.88200399999999
 20
-40.508597999999999
 30
0.0
 11
-108.214996
 21
-39.995398999999999
 31
0.0
  0
LINE
  5
8FA
  8
0
  6
CONTINUOUS
 10
-108.214996
 20
-39.995398999999999
 30
0.0
 11
-108.50700399999999
 21
-39.394298999999997
 31
0.0
  0
LINE
  5
8FB
  8
0
  6
CONTINUOUS
 10
-108.50700399999999
 20
-39.394298999999997
 30
0.0
 11
-108.74700199999999
 21
-38.715800999999999
 31
0.0
  0
LINE
  5
8FC
  8
0
  6
CONTINUOUS
 10
-108.74700199999999
 20
-38.715800999999999
 30
0.0
 11
-108.92600299999999
 21
-37.973998999999999
 31
0.0
  0
LINE
  5
8FD
  8
0
  6
CONTINUOUS
 10
-108.92600299999999
 20
-37.973998999999999
 30
0.0
 11
-109.03600299999999
 21
-37.177700000000002
 31
0.0
  0
LINE
  5
8FE
  8
0
  6
CONTINUOUS
 10
-109.03600299999999
 20
-37.177700000000002
 30
0.0
 11
-109.070999
 21
-36.417900000000003
 31
0.0
  0
LINE
  5
8FF
  8
0
  6
CONTINUOUS
 10
-105.304001
 20
-41.48780099999999
 30
0.0
 11
-105.93000000000001
 21
-41.231400000000001
 31
0.0
  0
LINE
  5
900
  8
0
  6
CONTINUOUS
 10
-105.93000000000001
 20
-41.231400000000001
 30
0.0
 11
-106.487999
 21
-40.919201000000001
 31
0.0
  0
LINE
  5
901
  8
0
  6
CONTINUOUS
 10
-106.487999
 20
-40.919201000000001
 30
0.0
 11
-107.010002
 21
-40.536999000000002
 31
0.0
  0
LINE
  5
902
  8
0
  6
CONTINUOUS
 10
-107.010002
 20
-40.536999000000002
 30
0.0
 11
-107.477997
 21
-40.097800999999997
 31
0.0
  0
LINE
  5
903
  8
0
  6
CONTINUOUS
 10
-107.477997
 20
-40.097800999999997
 30
0.0
 11
-107.889999
 21
-39.604999999999997
 31
0.0
  0
LINE
  5
904
  8
0
  6
CONTINUOUS
 10
-107.889999
 20
-39.604999999999997
 30
0.0
 11
-108.24099699999999
 21
-39.065701000000011
 31
0.0
  0
LINE
  5
905
  8
0
  6
CONTINUOUS
 10
-108.24099699999999
 20
-39.065701000000011
 30
0.0
 11
-108.52600099999999
 21
-38.482899000000003
 31
0.0
  0
LINE
  5
906
  8
0
  6
CONTINUOUS
 10
-108.52600099999999
 20
-38.482899000000003
 30
0.0
 11
-108.736
 21
-37.8797
 31
0.0
  0
LINE
  5
907
  8
0
  6
CONTINUOUS
 10
-108.736
 20
-37.8797
 30
0.0
 11
-108.87200199999999
 21
-37.260798999999999
 31
0.0
  0
LINE
  5
908
  8
0
  6
CONTINUOUS
 10
-108.87200199999999
 20
-37.260798999999999
 30
0.0
 11
-108.933998
 21
-36.632300999999998
 31
0.0
  0
LINE
  5
909
  8
0
  6
CONTINUOUS
 10
-108.933998
 20
-36.632300999999998
 30
0.0
 11
-108.94000200000001
 21
-36.417900000000003
 31
0.0
  0
LINE
  5
90A
  8
0
  6
CONTINUOUS
 10
-98.320899999999995
 20
-36.417900000000003
 30
0.0
 11
-98.364304000000004
 21
-37.091301000000001
 31
0.0
  0
LINE
  5
90B
  8
0
  6
CONTINUOUS
 10
-98.364304000000004
 20
-37.091301000000001
 30
0.0
 11
-98.483397999999994
 21
-37.722301000000002
 31
0.0
  0
LINE
  5
90C
  8
0
  6
CONTINUOUS
 10
-98.483397999999994
 20
-37.722301000000002
 30
0.0
 11
-98.676804000000004
 21
-38.337502000000001
 31
0.0
  0
LINE
  5
90D
  8
0
  6
CONTINUOUS
 10
-98.676804000000004
 20
-38.337502000000001
 30
0.0
 11
-98.962997000000001
 21
-38.962699999999998
 31
0.0
  0
LINE
  5
90E
  8
0
  6
CONTINUOUS
 10
-98.962997000000001
 20
-38.962699999999998
 30
0.0
 11
-99.305701999999997
 21
-39.515301000000001
 31
0.0
  0
LINE
  5
90F
  8
0
  6
CONTINUOUS
 10
-99.305701999999997
 20
-39.515301000000001
 30
0.0
 11
-99.712601000000021
 21
-40.021998999999987
 31
0.0
  0
LINE
  5
910
  8
0
  6
CONTINUOUS
 10
-99.712601000000021
 20
-40.021998999999987
 30
0.0
 11
-100.174004
 21
-40.471499999999999
 31
0.0
  0
LINE
  5
911
  8
0
  6
CONTINUOUS
 10
-100.174004
 20
-40.471499999999999
 30
0.0
 11
-100.681
 21
-40.858601
 31
0.0
  0
LINE
  5
912
  8
0
  6
CONTINUOUS
 10
-100.681
 20
-40.858601
 30
0.0
 11
-101.230003
 21
-41.181899999999999
 31
0.0
  0
LINE
  5
913
  8
0
  6
CONTINUOUS
 10
-101.230003
 20
-41.181899999999999
 30
0.0
 11
-101.819
 21
-41.438499
 31
0.0
  0
LINE
  5
914
  8
0
  6
CONTINUOUS
 10
-101.819
 20
-41.438499
 30
0.0
 11
-102.433998
 21
-41.62169999999999
 31
0.0
  0
LINE
  5
915
  8
0
  6
CONTINUOUS
 10
-102.433998
 20
-41.62169999999999
 30
0.0
 11
-103.072998
 21
-41.729500000000002
 31
0.0
  0
LINE
  5
916
  8
0
  6
CONTINUOUS
 10
-103.072998
 20
-41.729500000000002
 30
0.0
 11
-103.554001
 21
-41.759498999999991
 31
0.0
  0
LINE
  5
917
  8
0
  6
CONTINUOUS
 10
-98.829903000000016
 20
-38.702998999999998
 30
0.0
 11
-99.182502999999997
 21
-39.199199999999998
 31
0.0
  0
LINE
  5
918
  8
0
  6
CONTINUOUS
 10
-99.182502999999997
 20
-39.199199999999998
 30
0.0
 11
-99.582603000000006
 21
-39.625999
 31
0.0
  0
LINE
  5
919
  8
0
  6
CONTINUOUS
 10
-99.582603000000006
 20
-39.625999
 30
0.0
 11
-100.039001
 21
-39.997501
 31
0.0
  0
LINE
  5
91A
  8
0
  6
CONTINUOUS
 10
-100.039001
 20
-39.997501
 30
0.0
 11
-100.533997
 21
-40.299599000000001
 31
0.0
  0
LINE
  5
91B
  8
0
  6
CONTINUOUS
 10
-100.533997
 20
-40.299599000000001
 30
0.0
 11
-101.06500200000001
 21
-40.533297999999988
 31
0.0
  0
LINE
  5
91C
  8
0
  6
CONTINUOUS
 10
-101.06500200000001
 20
-40.533297999999988
 30
0.0
 11
-101.66100299999999
 21
-40.702300999999991
 31
0.0
  0
LINE
  5
91D
  8
0
  6
CONTINUOUS
 10
-101.66100299999999
 20
-40.702300999999991
 30
0.0
 11
-102.238998
 21
-40.781798999999999
 31
0.0
  0
LINE
  5
91E
  8
0
  6
CONTINUOUS
 10
-102.238998
 20
-40.781798999999999
 30
0.0
 11
-102.806999
 21
-40.784500000000001
 31
0.0
  0
LINE
  5
91F
  8
0
  6
CONTINUOUS
 10
-101.81500200000001
 20
-37.971600000000002
 30
0.0
 11
-101.98200199999999
 21
-38.773997999999999
 31
0.0
  0
LINE
  5
920
  8
0
  6
CONTINUOUS
 10
-101.98200199999999
 20
-38.773997999999999
 30
0.0
 11
-102.221001
 21
-39.547600000000003
 31
0.0
  0
LINE
  5
921
  8
0
  6
CONTINUOUS
 10
-102.221001
 20
-39.547600000000003
 30
0.0
 11
-102.51599899999999
 21
-40.245601999999998
 31
0.0
  0
LINE
  5
922
  8
0
  6
CONTINUOUS
 10
-102.51599899999999
 20
-40.245601999999998
 30
0.0
 11
-102.84699999999999
 21
-40.847301000000002
 31
0.0
  0
LINE
  5
923
  8
0
  6
CONTINUOUS
 10
-102.84699999999999
 20
-40.847301000000002
 30
0.0
 11
-103.233002
 21
-41.392600999999999
 31
0.0
  0
LINE
  5
924
  8
0
  6
CONTINUOUS
 10
-103.233002
 20
-41.392600999999999
 30
0.0
 11
-103.641998
 21
-41.844200000000001
 31
0.0
  0
LINE
  5
925
  8
0
  6
CONTINUOUS
 10
-103.641998
 20
-41.844200000000001
 30
0.0
 11
-104.054001
 21
-42.196800000000003
 31
0.0
  0
LINE
  5
926
  8
0
  6
CONTINUOUS
 10
-104.054001
 20
-42.196800000000003
 30
0.0
 11
-104.51300000000001
 21
-42.491599999999991
 31
0.0
  0
LINE
  5
927
  8
0
  6
CONTINUOUS
 10
-104.51300000000001
 20
-42.491599999999991
 30
0.0
 11
-104.977997
 21
-42.699902000000002
 31
0.0
  0
LINE
  5
928
  8
0
  6
CONTINUOUS
 10
-104.977997
 20
-42.699902000000002
 30
0.0
 11
-105.458
 21
-42.831401999999997
 31
0.0
  0
LINE
  5
929
  8
0
  6
CONTINUOUS
 10
-105.458
 20
-42.831401999999997
 30
0.0
 11
-105.958
 21
-42.880198999999998
 31
0.0
  0
LINE
  5
92A
  8
0
  6
CONTINUOUS
 10
-105.958
 20
-42.880198999999998
 30
0.0
 11
-106.442001
 21
-42.848498999999997
 31
0.0
  0
LINE
  5
92B
  8
0
  6
CONTINUOUS
 10
-106.442001
 20
-42.848498999999997
 30
0.0
 11
-106.927002
 21
-42.735900999999991
 31
0.0
  0
LINE
  5
92C
  8
0
  6
CONTINUOUS
 10
-106.927002
 20
-42.735900999999991
 30
0.0
 11
-107.371002
 21
-42.555801000000002
 31
0.0
  0
LINE
  5
92D
  8
0
  6
CONTINUOUS
 10
-107.371002
 20
-42.555801000000002
 30
0.0
 11
-107.833
 21
-42.284999999999989
 31
0.0
  0
LINE
  5
92E
  8
0
  6
CONTINUOUS
 10
-107.833
 20
-42.284999999999989
 30
0.0
 11
-108.278999
 21
-41.926700999999987
 31
0.0
  0
LINE
  5
92F
  8
0
  6
CONTINUOUS
 10
-108.278999
 20
-41.926700999999987
 30
0.0
 11
-108.69499999999999
 21
-41.493000000000002
 31
0.0
  0
LINE
  5
930
  8
0
  6
CONTINUOUS
 10
-108.69499999999999
 20
-41.493000000000002
 30
0.0
 11
-109.084
 21
-40.969397999999998
 31
0.0
  0
LINE
  5
931
  8
0
  6
CONTINUOUS
 10
-109.084
 20
-40.969397999999998
 30
0.0
 11
-109.43000000000001
 21
-40.371898999999999
 31
0.0
  0
LINE
  5
932
  8
0
  6
CONTINUOUS
 10
-109.43000000000001
 20
-40.371898999999999
 30
0.0
 11
-109.731003
 21
-39.699699000000003
 31
0.0
  0
LINE
  5
933
  8
0
  6
CONTINUOUS
 10
-109.731003
 20
-39.699699000000003
 30
0.0
 11
-109.98200199999999
 21
-38.944499999999998
 31
0.0
  0
LINE
  5
934
  8
0
  6
CONTINUOUS
 10
-109.98200199999999
 20
-38.944499999999998
 30
0.0
 11
-110.16799899999999
 21
-38.130402000000011
 31
0.0
  0
LINE
  5
935
  8
0
  6
CONTINUOUS
 10
-110.16799899999999
 20
-38.130402000000011
 30
0.0
 11
-110.280998
 21
-37.287399000000001
 31
0.0
  0
LINE
  5
936
  8
0
  6
CONTINUOUS
 10
-110.280998
 20
-37.287399000000001
 30
0.0
 11
-110.320999
 21
-36.417900000000003
 31
0.0
  0
LINE
  5
937
  8
0
  6
CONTINUOUS
 10
-97.070899999999995
 20
-36.417900000000003
 30
0.0
 11
-97.115302999999983
 21
-37.172401000000001
 31
0.0
  0
LINE
  5
938
  8
0
  6
CONTINUOUS
 10
-97.115302999999983
 20
-37.172401000000001
 30
0.0
 11
-97.236801000000014
 21
-37.885201000000002
 31
0.0
  0
LINE
  5
939
  8
0
  6
CONTINUOUS
 10
-97.236801000000014
 20
-37.885201000000002
 30
0.0
 11
-97.435599999999994
 21
-38.580798999999999
 31
0.0
  0
LINE
  5
93A
  8
0
  6
CONTINUOUS
 10
-97.435599999999994
 20
-38.580798999999999
 30
0.0
 11
-97.710098000000016
 21
-39.253700000000002
 31
0.0
  0
LINE
  5
93B
  8
0
  6
CONTINUOUS
 10
-97.710098000000016
 20
-39.253700000000002
 30
0.0
 11
-98.053496999999993
 21
-39.886101000000011
 31
0.0
  0
LINE
  5
93C
  8
0
  6
CONTINUOUS
 10
-98.053496999999993
 20
-39.886101000000011
 30
0.0
 11
-98.464896999999993
 21
-40.478901
 31
0.0
  0
LINE
  5
93D
  8
0
  6
CONTINUOUS
 10
-98.464896999999993
 20
-40.478901
 30
0.0
 11
-98.939003
 21
-41.023398999999991
 31
0.0
  0
LINE
  5
93E
  8
0
  6
CONTINUOUS
 10
-98.939003
 20
-41.023398999999991
 30
0.0
 11
-99.469596999999993
 21
-41.512501
 31
0.0
  0
LINE
  5
93F
  8
0
  6
CONTINUOUS
 10
-99.469596999999993
 20
-41.512501
 30
0.0
 11
-100.050003
 21
-41.940201000000002
 31
0.0
  0
LINE
  5
940
  8
0
  6
CONTINUOUS
 10
-100.050003
 20
-41.940201000000002
 30
0.0
 11
-100.674004
 21
-42.301399000000004
 31
0.0
  0
LINE
  5
941
  8
0
  6
CONTINUOUS
 10
-100.674004
 20
-42.301399000000004
 30
0.0
 11
-101.328003
 21
-42.589297999999992
 31
0.0
  0
LINE
  5
942
  8
0
  6
CONTINUOUS
 10
-101.328003
 20
-42.589297999999992
 30
0.0
 11
-102.014999
 21
-42.805801000000002
 31
0.0
  0
LINE
  5
943
  8
0
  6
CONTINUOUS
 10
-102.014999
 20
-42.805801000000002
 30
0.0
 11
-102.72199999999999
 21
-42.945301000000001
 31
0.0
  0
LINE
  5
944
  8
0
  6
CONTINUOUS
 10
-102.72199999999999
 20
-42.945301000000001
 30
0.0
 11
-103.44000200000001
 21
-43.006000999999991
 31
0.0
  0
LINE
  5
945
  8
0
  6
CONTINUOUS
 10
-103.44000200000001
 20
-43.006000999999991
 30
0.0
 11
-104.160004
 21
-42.987202000000003
 31
0.0
  0
LINE
  5
946
  8
0
  6
CONTINUOUS
 10
-104.160004
 20
-42.987202000000003
 30
0.0
 11
-104.86599699999999
 21
-42.890498999999998
 31
0.0
  0
LINE
  5
947
  8
0
  6
CONTINUOUS
 10
-104.86599699999999
 20
-42.890498999999998
 30
0.0
 11
-105.289001
 21
-42.795699999999989
 31
0.0
  0
LINE
  5
948
  8
0
  6
CONTINUOUS
 10
95.102401999999998
 20
-36.0
 30
0.0
 11
95.129302999999993
 21
-36.551299999999998
 31
0.0
  0
LINE
  5
949
  8
0
  6
CONTINUOUS
 10
95.129302999999993
 20
-36.551299999999998
 30
0.0
 11
95.209900000000005
 21
-37.097400999999998
 31
0.0
  0
LINE
  5
94A
  8
0
  6
CONTINUOUS
 10
95.209900000000005
 20
-37.097400999999998
 30
0.0
 11
95.343399000000005
 21
-37.632801000000001
 31
0.0
  0
LINE
  5
94B
  8
0
  6
CONTINUOUS
 10
95.343399000000005
 20
-37.632801000000001
 30
0.0
 11
95.528503000000015
 21
-38.152599000000002
 31
0.0
  0
LINE
  5
94C
  8
0
  6
CONTINUOUS
 10
95.528503000000015
 20
-38.152599000000002
 30
0.0
 11
95.763297999999992
 21
-38.651600000000002
 31
0.0
  0
LINE
  5
94D
  8
0
  6
CONTINUOUS
 10
95.763297999999992
 20
-38.651600000000002
 30
0.0
 11
96.045799000000002
 21
-39.125098999999999
 31
0.0
  0
LINE
  5
94E
  8
0
  6
CONTINUOUS
 10
96.045799000000002
 20
-39.125098999999999
 30
0.0
 11
96.373001000000002
 21
-39.568500999999998
 31
0.0
  0
LINE
  5
94F
  8
0
  6
CONTINUOUS
 10
96.373001000000002
 20
-39.568500999999998
 30
0.0
 11
96.741898000000006
 21
-39.977501000000011
 31
0.0
  0
LINE
  5
950
  8
0
  6
CONTINUOUS
 10
96.741898000000006
 20
-39.977501000000011
 30
0.0
 11
97.148903000000004
 21
-40.348202000000001
 31
0.0
  0
LINE
  5
951
  8
0
  6
CONTINUOUS
 10
97.148903000000004
 20
-40.348202000000001
 30
0.0
 11
97.590102999999985
 21
-40.67699799999999
 31
0.0
  0
LINE
  5
952
  8
0
  6
CONTINUOUS
 10
97.590102999999985
 20
-40.67699799999999
 30
0.0
 11
98.061301999999998
 21
-40.960799999999992
 31
0.0
  0
LINE
  5
953
  8
0
  6
CONTINUOUS
 10
98.061301999999998
 20
-40.960799999999992
 30
0.0
 11
98.557899000000006
 21
-41.196800000000003
 31
0.0
  0
LINE
  5
954
  8
0
  6
CONTINUOUS
 10
98.557899000000006
 20
-41.196800000000003
 30
0.0
 11
99.07510400000001
 21
-41.382801000000001
 31
0.0
  0
LINE
  5
955
  8
0
  6
CONTINUOUS
 10
99.07510400000001
 20
-41.382801000000001
 30
0.0
 11
99.608002000000013
 21
-41.516899000000002
 31
0.0
  0
LINE
  5
956
  8
0
  6
CONTINUOUS
 10
99.608002000000013
 20
-41.516899000000002
 30
0.0
 11
100.15100099999999
 21
-41.597900000000003
 31
0.0
  0
LINE
  5
957
  8
0
  6
CONTINUOUS
 10
100.15100099999999
 20
-41.597900000000003
 30
0.0
 11
100.699997
 21
-41.625
 31
0.0
  0
LINE
  5
958
  8
0
  6
CONTINUOUS
 10
100.699997
 20
-41.625
 30
0.0
 11
101.24900100000001
 21
-41.597900000000003
 31
0.0
  0
LINE
  5
959
  8
0
  6
CONTINUOUS
 10
101.24900100000001
 20
-41.597900000000003
 30
0.0
 11
101.792
 21
-41.516899000000002
 31
0.0
  0
LINE
  5
95A
  8
0
  6
CONTINUOUS
 10
101.792
 20
-41.516899000000002
 30
0.0
 11
102.324997
 21
-41.382801000000001
 31
0.0
  0
LINE
  5
95B
  8
0
  6
CONTINUOUS
 10
102.324997
 20
-41.382801000000001
 30
0.0
 11
102.84200300000001
 21
-41.196800000000003
 31
0.0
  0
LINE
  5
95C
  8
0
  6
CONTINUOUS
 10
102.84200300000001
 20
-41.196800000000003
 30
0.0
 11
103.33899700000001
 21
-40.960799999999992
 31
0.0
  0
LINE
  5
95D
  8
0
  6
CONTINUOUS
 10
103.33899700000001
 20
-40.960799999999992
 30
0.0
 11
103.80999799999999
 21
-40.67699799999999
 31
0.0
  0
LINE
  5
95E
  8
0
  6
CONTINUOUS
 10
103.80999799999999
 20
-40.67699799999999
 30
0.0
 11
104.25099899999999
 21
-40.348202000000001
 31
0.0
  0
LINE
  5
95F
  8
0
  6
CONTINUOUS
 10
104.25099899999999
 20
-40.348202000000001
 30
0.0
 11
104.65799699999999
 21
-39.977501000000011
 31
0.0
  0
LINE
  5
960
  8
0
  6
CONTINUOUS
 10
104.65799699999999
 20
-39.977501000000011
 30
0.0
 11
105.027
 21
-39.568500999999998
 31
0.0
  0
LINE
  5
961
  8
0
  6
CONTINUOUS
 10
105.027
 20
-39.568500999999998
 30
0.0
 11
105.353996
 21
-39.125098999999999
 31
0.0
  0
LINE
  5
962
  8
0
  6
CONTINUOUS
 10
105.353996
 20
-39.125098999999999
 30
0.0
 11
105.637001
 21
-38.651600000000002
 31
0.0
  0
LINE
  5
963
  8
0
  6
CONTINUOUS
 10
105.637001
 20
-38.651600000000002
 30
0.0
 11
105.922997
 21
-38.024399000000003
 31
0.0
  0
LINE
  5
964
  8
0
  6
CONTINUOUS
 10
105.922997
 20
-38.024399000000003
 30
0.0
 11
106.095001
 21
-37.500197999999997
 31
0.0
  0
LINE
  5
965
  8
0
  6
CONTINUOUS
 10
106.095001
 20
-37.500197999999997
 30
0.0
 11
106.214996
 21
-36.9617
 31
0.0
  0
LINE
  5
966
  8
0
  6
CONTINUOUS
 10
106.214996
 20
-36.9617
 30
0.0
 11
106.281998
 21
-36.413798999999997
 31
0.0
  0
LINE
  5
967
  8
0
  6
CONTINUOUS
 10
106.281998
 20
-36.413798999999997
 30
0.0
 11
106.297997
 21
-36.0
 31
0.0
  0
LINE
  5
968
  8
0
  6
CONTINUOUS
 10
96.352401999999998
 20
-36.0
 30
0.0
 11
96.385101000000006
 21
-36.535598999999998
 31
0.0
  0
LINE
  5
969
  8
0
  6
CONTINUOUS
 10
96.385101000000006
 20
-36.535598999999998
 30
0.0
 11
96.482697000000002
 21
-37.063099000000001
 31
0.0
  0
LINE
  5
96A
  8
0
  6
CONTINUOUS
 10
96.482697000000002
 20
-37.063099000000001
 30
0.0
 11
96.643699999999995
 21
-37.574599999999997
 31
0.0
  0
LINE
  5
96B
  8
0
  6
CONTINUOUS
 10
96.643699999999995
 20
-37.574599999999997
 30
0.0
 11
96.865798999999996
 21
-38.062401000000001
 31
0.0
  0
LINE
  5
96C
  8
0
  6
CONTINUOUS
 10
96.865798999999996
 20
-38.062401000000001
 30
0.0
 11
97.145499999999998
 21
-38.519199
 31
0.0
  0
LINE
  5
96D
  8
0
  6
CONTINUOUS
 10
97.145499999999998
 20
-38.519199
 30
0.0
 11
97.478600000000014
 21
-38.938099000000001
 31
0.0
  0
LINE
  5
96E
  8
0
  6
CONTINUOUS
 10
97.478600000000014
 20
-38.938099000000001
 30
0.0
 11
97.860298000000014
 21
-39.312801
 31
0.0
  0
LINE
  5
96F
  8
0
  6
CONTINUOUS
 10
97.860298000000014
 20
-39.312801
 30
0.0
 11
98.284599
 21
-39.637698999999998
 31
0.0
  0
LINE
  5
970
  8
0
  6
CONTINUOUS
 10
98.284599
 20
-39.637698999999998
 30
0.0
 11
98.7453
 21
-39.907902
 31
0.0
  0
LINE
  5
971
  8
0
  6
CONTINUOUS
 10
98.7453
 20
-39.907902
 30
0.0
 11
99.235298
 21
-40.119300999999993
 31
0.0
  0
LINE
  5
972
  8
0
  6
CONTINUOUS
 10
99.235298
 20
-40.119300999999993
 30
0.0
 11
99.747398000000004
 21
-40.268700000000003
 31
0.0
  0
LINE
  5
973
  8
0
  6
CONTINUOUS
 10
99.747398000000004
 20
-40.268700000000003
 30
0.0
 11
100.274002
 21
-40.353900999999993
 31
0.0
  0
LINE
  5
974
  8
0
  6
CONTINUOUS
 10
100.274002
 20
-40.353900999999993
 30
0.0
 11
100.806999
 21
-40.373699000000002
 31
0.0
  0
LINE
  5
975
  8
0
  6
CONTINUOUS
 10
100.806999
 20
-40.373699000000002
 30
0.0
 11
101.337997
 21
-40.327702000000002
 31
0.0
  0
LINE
  5
976
  8
0
  6
CONTINUOUS
 10
101.337997
 20
-40.327702000000002
 30
0.0
 11
101.860001
 21
-40.216498999999992
 31
0.0
  0
LINE
  5
977
  8
0
  6
CONTINUOUS
 10
101.860001
 20
-40.216498999999992
 30
0.0
 11
102.363998
 21
-40.041999999999987
 31
0.0
  0
LINE
  5
978
  8
0
  6
CONTINUOUS
 10
102.363998
 20
-40.041999999999987
 30
0.0
 11
102.843002
 21
-39.806598999999999
 31
0.0
  0
LINE
  5
979
  8
0
  6
CONTINUOUS
 10
102.843002
 20
-39.806598999999999
 30
0.0
 11
103.290001
 21
-39.51400000000001
 31
0.0
  0
LINE
  5
97A
  8
0
  6
CONTINUOUS
 10
103.290001
 20
-39.51400000000001
 30
0.0
 11
103.697998
 21
-39.168598000000003
 31
0.0
  0
LINE
  5
97B
  8
0
  6
CONTINUOUS
 10
103.697998
 20
-39.168598000000003
 30
0.0
 11
104.060997
 21
-38.775500999999998
 31
0.0
  0
LINE
  5
97C
  8
0
  6
CONTINUOUS
 10
104.060997
 20
-38.775500999999998
 30
0.0
 11
104.373001
 21
-38.340598999999997
 31
0.0
  0
LINE
  5
97D
  8
0
  6
CONTINUOUS
 10
104.373001
 20
-38.340598999999997
 30
0.0
 11
104.629997
 21
-37.870602000000012
 31
0.0
  0
LINE
  5
97E
  8
0
  6
CONTINUOUS
 10
104.629997
 20
-37.870602000000012
 30
0.0
 11
104.828003
 21
-37.372397999999997
 31
0.0
  0
LINE
  5
97F
  8
0
  6
CONTINUOUS
 10
104.828003
 20
-37.372397999999997
 30
0.0
 11
104.96399700000001
 21
-36.853499999999997
 31
0.0
  0
LINE
  5
980
  8
0
  6
CONTINUOUS
 10
104.96399700000001
 20
-36.853499999999997
 30
0.0
 11
105.03600299999999
 21
-36.321899000000002
 31
0.0
  0
LINE
  5
981
  8
0
  6
CONTINUOUS
 10
105.03600299999999
 20
-36.321899000000002
 30
0.0
 11
105.047997
 21
-36.0
 31
0.0
  0
LINE
  5
982
  8
0
  6
CONTINUOUS
 10
99.775002000000015
 20
8.0999999999999996
 30
0.0
 11
99.778801000000001
 21
8.0992399999999982
 31
0.0
  0
LINE
  5
983
  8
0
  6
CONTINUOUS
 10
101.058998
 20
-36.034599
 30
0.0
 11
101.101997
 21
-36.872601000000003
 31
0.0
  0
LINE
  5
984
  8
0
  6
CONTINUOUS
 10
101.101997
 20
-36.872601000000003
 30
0.0
 11
101.216003
 21
-37.653399999999998
 31
0.0
  0
LINE
  5
985
  8
0
  6
CONTINUOUS
 10
101.216003
 20
-37.653399999999998
 30
0.0
 11
101.398003
 21
-38.381802
 31
0.0
  0
LINE
  5
986
  8
0
  6
CONTINUOUS
 10
101.398003
 20
-38.381802
 30
0.0
 11
101.635002
 21
-39.040500999999999
 31
0.0
  0
LINE
  5
987
  8
0
  6
CONTINUOUS
 10
101.635002
 20
-39.040500999999999
 30
0.0
 11
101.932999
 21
-39.64500000000001
 31
0.0
  0
LINE
  5
988
  8
0
  6
CONTINUOUS
 10
101.932999
 20
-39.64500000000001
 30
0.0
 11
102.236
 21
-40.111099000000003
 31
0.0
  0
LINE
  5
989
  8
0
  6
CONTINUOUS
 10
102.610001
 20
-41.306197999999988
 30
0.0
 11
103.261002
 21
-41.154899999999998
 31
0.0
  0
LINE
  5
98A
  8
0
  6
CONTINUOUS
 10
103.261002
 20
-41.154899999999998
 30
0.0
 11
103.849998
 21
-40.938999000000003
 31
0.0
  0
LINE
  5
98B
  8
0
  6
CONTINUOUS
 10
103.849998
 20
-40.938999000000003
 30
0.0
 11
104.432999
 21
-40.6432
 31
0.0
  0
LINE
  5
98C
  8
0
  6
CONTINUOUS
 10
104.432999
 20
-40.6432
 30
0.0
 11
104.964996
 21
-40.285099000000002
 31
0.0
  0
LINE
  5
98D
  8
0
  6
CONTINUOUS
 10
104.964996
 20
-40.285099000000002
 30
0.0
 11
105.45700100000001
 21
-39.858398000000001
 31
0.0
  0
LINE
  5
98E
  8
0
  6
CONTINUOUS
 10
105.45700100000001
 20
-39.858398000000001
 30
0.0
 11
105.889999
 21
-39.378601000000003
 31
0.0
  0
LINE
  5
98F
  8
0
  6
CONTINUOUS
 10
105.889999
 20
-39.378601000000003
 30
0.0
 11
106.262001
 21
-38.849400000000003
 31
0.0
  0
LINE
  5
990
  8
0
  6
CONTINUOUS
 10
106.262001
 20
-38.849400000000003
 30
0.0
 11
106.56500200000001
 21
-38.2836
 31
0.0
  0
LINE
  5
991
  8
0
  6
CONTINUOUS
 10
106.56500200000001
 20
-38.2836
 30
0.0
 11
106.80100299999999
 21
-37.68
 31
0.0
  0
LINE
  5
992
  8
0
  6
CONTINUOUS
 10
106.80100299999999
 20
-37.68
 30
0.0
 11
106.962997
 21
-37.046902000000003
 31
0.0
  0
LINE
  5
993
  8
0
  6
CONTINUOUS
 10
106.962997
 20
-37.046902000000003
 30
0.0
 11
107.04499800000001
 21
-36.415100000000002
 31
0.0
  0
LINE
  5
994
  8
0
  6
CONTINUOUS
 10
107.04499800000001
 20
-36.415100000000002
 30
0.0
 11
107.05999799999999
 21
-36.034599
 31
0.0
  0
LINE
  5
995
  8
0
  6
CONTINUOUS
 10
96.44090300000002
 20
-36.034599
 30
0.0
 11
96.484702999999996
 21
-36.710200999999998
 31
0.0
  0
LINE
  5
996
  8
0
  6
CONTINUOUS
 10
96.484702999999996
 20
-36.710200999999998
 30
0.0
 11
96.604202000000001
 21
-37.342899000000003
 31
0.0
  0
LINE
  5
997
  8
0
  6
CONTINUOUS
 10
96.604202000000001
 20
-37.342899000000003
 30
0.0
 11
96.799796999999998
 21
-37.961102000000011
 31
0.0
  0
LINE
  5
998
  8
0
  6
CONTINUOUS
 10
96.799796999999998
 20
-37.961102000000011
 30
0.0
 11
96.960296999999997
 21
-38.338902000000012
 31
0.0
  0
LINE
  5
999
  8
0
  6
CONTINUOUS
 10
103.408997
 20
-42.412300000000002
 30
0.0
 11
103.906998
 21
-42.488898999999989
 31
0.0
  0
LINE
  5
99A
  8
0
  6
CONTINUOUS
 10
103.906998
 20
-42.488898999999989
 30
0.0
 11
104.39099899999999
 21
-42.485298
 31
0.0
  0
LINE
  5
99B
  8
0
  6
CONTINUOUS
 10
104.39099899999999
 20
-42.485298
 30
0.0
 11
104.86799600000001
 21
-42.403399999999991
 31
0.0
  0
LINE
  5
99C
  8
0
  6
CONTINUOUS
 10
104.86799600000001
 20
-42.403399999999991
 30
0.0
 11
105.350998
 21
-42.237999000000002
 31
0.0
  0
LINE
  5
99D
  8
0
  6
CONTINUOUS
 10
105.350998
 20
-42.237999000000002
 30
0.0
 11
105.818001
 21
-41.990898000000001
 31
0.0
  0
LINE
  5
99E
  8
0
  6
CONTINUOUS
 10
105.818001
 20
-41.990898000000001
 30
0.0
 11
106.269997
 21
-41.658999999999992
 31
0.0
  0
LINE
  5
99F
  8
0
  6
CONTINUOUS
 10
106.269997
 20
-41.658999999999992
 30
0.0
 11
106.708
 21
-41.232300000000002
 31
0.0
  0
LINE
  5
9A0
  8
0
  6
CONTINUOUS
 10
106.708
 20
-41.232300000000002
 30
0.0
 11
107.099998
 21
-40.738799999999991
 31
0.0
  0
LINE
  5
9A1
  8
0
  6
CONTINUOUS
 10
107.099998
 20
-40.738799999999991
 30
0.0
 11
107.459
 21
-40.1614
 31
0.0
  0
LINE
  5
9A2
  8
0
  6
CONTINUOUS
 10
107.459
 20
-40.1614
 30
0.0
 11
107.773003
 21
-39.509399000000002
 31
0.0
  0
LINE
  5
9A3
  8
0
  6
CONTINUOUS
 10
107.773003
 20
-39.509399000000002
 30
0.0
 11
108.042
 21
-38.764999000000003
 31
0.0
  0
LINE
  5
9A4
  8
0
  6
CONTINUOUS
 10
108.042
 20
-38.764999000000003
 30
0.0
 11
108.24299600000001
 21
-37.976500999999999
 31
0.0
  0
LINE
  5
9A5
  8
0
  6
CONTINUOUS
 10
108.24299600000001
 20
-37.976500999999999
 30
0.0
 11
108.37599899999999
 21
-37.147399999999998
 31
0.0
  0
LINE
  5
9A6
  8
0
  6
CONTINUOUS
 10
108.37599899999999
 20
-37.147399999999998
 30
0.0
 11
108.435997
 21
-36.275599999999997
 31
0.0
  0
LINE
  5
9A7
  8
0
  6
CONTINUOUS
 10
108.435997
 20
-36.275599999999997
 30
0.0
 11
108.441002
 21
-36.034599
 31
0.0
  0
LINE
  5
9A8
  8
0
  6
CONTINUOUS
 10
99.808800000000005
 20
-36.034599
 30
0.0
 11
99.854896999999994
 21
-36.9604
 31
0.0
  0
LINE
  5
9A9
  8
0
  6
CONTINUOUS
 10
99.854896999999994
 20
-36.9604
 30
0.0
 11
99.974502999999999
 21
-37.813999000000003
 31
0.0
  0
LINE
  5
9AA
  8
0
  6
CONTINUOUS
 10
99.974502999999999
 20
-37.813999000000003
 30
0.0
 11
100.160004
 21
-38.604401000000003
 31
0.0
  0
LINE
  5
9AB
  8
0
  6
CONTINUOUS
 10
100.160004
 20
-38.604401000000003
 30
0.0
 11
100.415001
 21
-39.357399000000001
 31
0.0
  0
LINE
  5
9AC
  8
0
  6
CONTINUOUS
 10
100.415001
 20
-39.357399000000001
 30
0.0
 11
100.71700300000001
 21
-40.022799999999989
 31
0.0
  0
LINE
  5
9AD
  8
0
  6
CONTINUOUS
 10
100.71700300000001
 20
-40.022799999999989
 30
0.0
 11
100.927002
 21
-40.4011
 31
0.0
  0
LINE
  5
9AE
  8
0
  6
CONTINUOUS
 10
95.853995999999995
 20
-38.922798
 30
0.0
 11
96.217299999999994
 21
-39.572701000000002
 31
0.0
  0
LINE
  5
9AF
  8
0
  6
CONTINUOUS
 10
96.217299999999994
 20
-39.572701000000002
 30
0.0
 11
96.637900999999985
 21
-40.162601000000002
 31
0.0
  0
LINE
  5
9B0
  8
0
  6
CONTINUOUS
 10
96.637900999999985
 20
-40.162601000000002
 30
0.0
 11
97.1203
 21
-40.702300999999991
 31
0.0
  0
LINE
  5
9B1
  8
0
  6
CONTINUOUS
 10
97.1203
 20
-40.702300999999991
 30
0.0
 11
97.658896999999996
 21
-41.185501000000002
 31
0.0
  0
LINE
  5
9B2
  8
0
  6
CONTINUOUS
 10
97.658896999999996
 20
-41.185501000000002
 30
0.0
 11
98.241402000000022
 21
-41.602600000000002
 31
0.0
  0
LINE
  5
9B3
  8
0
  6
CONTINUOUS
 10
98.241402000000022
 20
-41.602600000000002
 30
0.0
 11
98.865600999999998
 21
-41.953499000000001
 31
0.0
  0
LINE
  5
9B4
  8
0
  6
CONTINUOUS
 10
98.865600999999998
 20
-41.953499000000001
 30
0.0
 11
99.524299999999997
 21
-42.234099999999998
 31
0.0
  0
LINE
  5
9B5
  8
0
  6
CONTINUOUS
 10
99.524299999999997
 20
-42.234099999999998
 30
0.0
 11
100.209
 21
-42.440899000000002
 31
0.0
  0
LINE
  5
9B6
  8
0
  6
CONTINUOUS
 10
100.209
 20
-42.440899000000002
 30
0.0
 11
100.91300200000001
 21
-42.57139999999999
 31
0.0
  0
LINE
  5
9B7
  8
0
  6
CONTINUOUS
 10
100.91300200000001
 20
-42.57139999999999
 30
0.0
 11
101.626999
 21
-42.624198999999997
 31
0.0
  0
LINE
  5
9B8
  8
0
  6
CONTINUOUS
 10
101.626999
 20
-42.624198999999997
 30
0.0
 11
102.34200300000001
 21
-42.598598000000003
 31
0.0
  0
LINE
  5
9B9
  8
0
  6
CONTINUOUS
 10
102.34200300000001
 20
-42.598598000000003
 30
0.0
 11
103.049004
 21
-42.494801000000002
 31
0.0
  0
LINE
  5
9BA
  8
0
  6
CONTINUOUS
 10
103.049004
 20
-42.494801000000002
 30
0.0
 11
103.73699999999999
 21
-42.315700999999997
 31
0.0
  0
LINE
  5
9BB
  8
0
  6
CONTINUOUS
 10
103.73699999999999
 20
-42.315700999999997
 30
0.0
 11
104.387001
 21
-42.068699000000002
 31
0.0
  0
LINE
  5
9BC
  8
0
  6
CONTINUOUS
 10
104.387001
 20
-42.068699000000002
 30
0.0
 11
105.008003
 21
-41.754500999999991
 31
0.0
  0
LINE
  5
9BD
  8
0
  6
CONTINUOUS
 10
105.008003
 20
-41.754500999999991
 30
0.0
 11
105.606003
 21
-41.366199000000002
 31
0.0
  0
LINE
  5
9BE
  8
0
  6
CONTINUOUS
 10
105.606003
 20
-41.366199000000002
 30
0.0
 11
106.154999
 21
-40.917301000000002
 31
0.0
  0
LINE
  5
9BF
  8
0
  6
CONTINUOUS
 10
106.154999
 20
-40.917301000000002
 30
0.0
 11
106.653999
 21
-40.4114
 31
0.0
  0
LINE
  5
9C0
  8
0
  6
CONTINUOUS
 10
106.653999
 20
-40.4114
 30
0.0
 11
107.102997
 21
-39.843299999999999
 31
0.0
  0
LINE
  5
9C1
  8
0
  6
CONTINUOUS
 10
107.102997
 20
-39.843299999999999
 30
0.0
 11
107.48699999999999
 21
-39.229197999999997
 31
0.0
  0
LINE
  5
9C2
  8
0
  6
CONTINUOUS
 10
107.48699999999999
 20
-39.229197999999997
 30
0.0
 11
107.799004
 21
-38.582698999999998
 31
0.0
  0
LINE
  5
9C3
  8
0
  6
CONTINUOUS
 10
107.799004
 20
-38.582698999999998
 30
0.0
 11
108.039001
 21
-37.906101
 31
0.0
  0
LINE
  5
9C4
  8
0
  6
CONTINUOUS
 10
108.039001
 20
-37.906101
 30
0.0
 11
108.204002
 21
-37.207199000000003
 31
0.0
  0
LINE
  5
9C5
  8
0
  6
CONTINUOUS
 10
108.204002
 20
-37.207199000000003
 30
0.0
 11
108.292
 21
-36.501700999999997
 31
0.0
  0
LINE
  5
9C6
  8
0
  6
CONTINUOUS
 10
108.292
 20
-36.501700999999997
 30
0.0
 11
108.30999799999999
 21
-36.034599
 31
0.0
  0
ENDSEC
  0
EOF
