  0
SECTION
  2
HEADER
  9
$EXTMIN
 10
-45.000000
 20
-45.000000
  9
$EXTMAX
 10
45.000000
 20
45.000000
  0
ENDSEC
  0
SECTION
  2
TABLES
  0
TABLE
  2
LTYPE
 70
     5
  0
LTYPE
  2
CONTINUOUS
 70
    64
  3
実線
 72
    65
 73
     0
 40
0.0
  0
LTYPE
  2
HIDDEN
 70
    64
  3
_ _ _ _ _ _ _ _ _ _ _ _ _ _ _ _ _ _ _ _ _ _ _
 72
    65
 73
     2
 40
0.375
 49
0.25
 49
-0.125
  0
LTYPE
  2
CENTER
 70
    64
  3
____ _ ____ _ ____ _ ____ _ ____ _ ____ _ ____
 72
    65
 73
     4
 40
2.0
 49
1.25
 49
-0.25
 49
0.25
 49
-0.25
  0
LTYPE
  2
PHANTOM
 70
    64
  3
_____ _ _ _____ _ _ _____ _ _ _____ _ _ ____
 72
    65
 73
     6
 40
2.5
 49
1.25
 49
-0.25
 49
0.25
 49
-0.25
 49
0.25
 49
-0.25
  0
LTYPE
  2
DASHED
 70
    64
  3
__ __ __ __ __ __ __ __ __ __ __ __ __ __ __
 72
    65
 73
     2
 40
0.75
 49
0.5
 49
-0.25
  0
ENDTAB
  0
TABLE
  2
LAYER
 70
     1
  0
LAYER
  2
0
 70
     0
 62
     7
  6
CONTINUOUS
  0
ENDTAB
  0
TABLE
  2
STYLE
 70
     1
  0
STYLE
  2
STANDARD
 70
    64
 40
2.0
 41
1.0
 50
0.0
 71
     0
 42
2.0
  3
txt
  4
bigfont
  0
ENDTAB
  0
ENDSEC
  0
SECTION
  2
BLOCKS
  0
ENDSEC
  0
SECTION
  2
ENTITIES
  0
LINE
  8
0
  6
CONTINUOUS
 10
11.146095
 20
-5.959595
 11
11.146286
 21
-5.962879
  0
ARC
  8
0
  6
CONTINUOUS
 10
9.497932
 20
-5.725437
 40
0.722783
 50
179.261780
 51
191.717606
  0
ARC
  8
0
  6
CONTINUOUS
 10
9.045811
 20
-5.814205
 40
0.262102
 50
192.789551
 51
210.734894
  0
ARC
  8
0
  6
CONTINUOUS
 10
8.916626
 20
-5.886620
 40
0.114117
 50
212.633194
 51
268.921570
  0
ARC
  8
0
  6
CONTINUOUS
 10
8.914623
 20
-5.891651
 40
0.109064
 50
269.924622
 51
331.516388
  0
ARC
  8
0
  6
CONTINUOUS
 10
8.834766
 20
-5.840687
 40
0.203669
 50
329.627411
 51
340.000061
  0
ARC
  8
0
  6
CONTINUOUS
 10
8.723274
 20
-5.799995
 40
0.322356
 50
339.981812
 51
348.114075
  0
ARC
  8
0
  6
CONTINUOUS
 10
8.527599
 20
-5.758717
 40
0.522335
 50
348.103668
 51
354.743591
  0
ARC
  8
0
  6
CONTINUOUS
 10
8.189327
 20
-5.726879
 40
0.862103
 50
354.696228
 51
0.265250
  0
ARC
  8
0
  6
CONTINUOUS
 10
8.773449
 20
-5.628429
 40
0.373985
 50
10.073150
 51
25.603264
  0
ARC
  8
0
  6
CONTINUOUS
 10
8.414349
 20
-5.702347
 40
0.740546
 50
358.977173
 51
10.844658
  0
ARC
  8
0
  6
CONTINUOUS
 10
8.360661
 20
-5.722431
 40
0.794146
 50
348.794342
 51
0.495349
  0
ARC
  8
0
  6
CONTINUOUS
 10
8.762192
 20
-5.797169
 40
0.385775
 50
332.746094
 51
348.093323
  0
ARC
  8
0
  6
CONTINUOUS
 10
8.918785
 20
-5.871540
 40
0.212580
 50
268.432373
 51
331.237610
  0
ARC
  8
0
  6
CONTINUOUS
 10
8.909901
 20
-5.850349
 40
0.233709
 50
240.089554
 51
270.753174
  0
ARC
  8
0
  6
CONTINUOUS
 10
8.902863
 20
-5.880386
 40
0.204356
 50
204.843353
 51
237.599228
  0
ARC
  8
0
  6
CONTINUOUS
 10
9.046192
 20
-5.802906
 40
0.367113
 50
190.570145
 51
206.418762
  0
ARC
  8
0
  6
CONTINUOUS
 10
9.398457
 20
-5.726547
 40
0.727482
 50
178.836670
 51
191.392776
  0
ARC
  8
0
  6
CONTINUOUS
 10
9.439396
 20
-5.704945
 40
0.768301
 50
168.529572
 51
180.509521
  0
ARC
  8
0
  6
CONTINUOUS
 10
9.057381
 20
-5.632446
 40
0.379532
 50
152.835663
 51
167.787003
  0
ARC
  8
0
  6
CONTINUOUS
 10
8.909023
 20
-5.562382
 40
0.215617
 50
88.126518
 51
151.402191
  0
ARC
  8
0
  6
CONTINUOUS
 10
8.919136
 20
-5.575871
 40
0.229009
 50
59.090740
 51
90.766998
  0
ARC
  8
0
  6
CONTINUOUS
 10
8.924568
 20
-5.549244
 40
0.203576
 50
23.885466
 51
56.552521
  0
ARC
  8
0
  6
CONTINUOUS
 10
10.072472
 20
-5.725529
 40
0.723882
 50
179.255798
 51
191.692307
  0
ARC
  8
0
  6
CONTINUOUS
 10
9.619415
 20
-5.814266
 40
0.262289
 50
192.766479
 51
210.694916
  0
ARC
  8
0
  6
CONTINUOUS
 10
9.489872
 20
-5.886803
 40
0.113933
 50
212.583344
 51
268.951782
  0
ARC
  8
0
  6
CONTINUOUS
 10
9.487934
 20
-5.891537
 40
0.109181
 50
269.924347
 51
331.479980
  0
ARC
  8
0
  6
CONTINUOUS
 10
9.408318
 20
-5.840641
 40
0.203545
 50
329.592316
 51
339.973907
  0
ARC
  8
0
  6
CONTINUOUS
 10
9.297737
 20
-5.800186
 40
0.321294
 50
339.948700
 51
348.108673
  0
ARC
  8
0
  6
CONTINUOUS
 10
9.099636
 20
-5.758366
 40
0.523760
 50
348.097626
 51
354.719696
  0
ARC
  8
0
  6
CONTINUOUS
 10
8.760864
 20
-5.726738
 40
0.864005
 50
354.698608
 51
0.255366
  0
ARC
  8
0
  6
CONTINUOUS
 10
9.346748
 20
-5.628563
 40
0.374130
 50
10.090130
 51
25.615475
  0
ARC
  8
0
  6
CONTINUOUS
 10
8.988300
 20
-5.702381
 40
0.740031
 50
358.979034
 51
10.854916
  0
ARC
  8
0
  6
CONTINUOUS
 10
8.934513
 20
-5.722446
 40
0.793731
 50
348.789398
 51
0.496572
  0
ARC
  8
0
  6
CONTINUOUS
 10
9.335331
 20
-5.797024
 40
0.386091
 50
332.746368
 51
348.081512
  0
ARC
  8
0
  6
CONTINUOUS
 10
9.492210
 20
-5.871540
 40
0.212577
 50
268.436279
 51
331.237885
  0
ARC
  8
0
  6
CONTINUOUS
 10
9.483337
 20
-5.850349
 40
0.233709
 50
240.089554
 51
270.753174
  0
ARC
  8
0
  6
CONTINUOUS
 10
9.476303
 20
-5.880386
 40
0.204357
 50
204.843399
 51
237.599213
  0
ARC
  8
0
  6
CONTINUOUS
 10
9.619637
 20
-5.802906
 40
0.367116
 50
190.570221
 51
206.418686
  0
ARC
  8
0
  6
CONTINUOUS
 10
9.971901
 20
-5.726547
 40
0.727488
 50
178.836700
 51
191.392700
  0
ARC
  8
0
  6
CONTINUOUS
 10
10.014381
 20
-5.704990
 40
0.769848
 50
168.549377
 51
180.505035
  0
ARC
  8
0
  6
CONTINUOUS
 10
9.630814
 20
-5.632317
 40
0.379517
 50
152.856964
 51
167.806946
  0
ARC
  8
0
  6
CONTINUOUS
 10
9.482304
 20
-5.562218
 40
0.215449
 50
88.139771
 51
151.428192
  0
ARC
  8
0
  6
CONTINUOUS
 10
9.492367
 20
-5.576221
 40
0.229363
 50
59.115143
 51
90.766953
  0
ARC
  8
0
  6
CONTINUOUS
 10
9.497894
 20
-5.549397
 40
0.203703
 50
23.915983
 51
56.575249
  0
ARC
  8
0
  6
CONTINUOUS
 10
8.316917
 20
-5.668594
 40
0.318373
 50
72.090851
 51
90.579948
  0
ARC
  8
0
  6
CONTINUOUS
 10
8.344803
 20
-5.570347
 40
0.216339
 50
47.086967
 51
71.117447
  0
ARC
  8
0
  6
CONTINUOUS
 10
8.371346
 20
-5.542465
 40
0.177850
 50
358.988464
 51
47.233299
  0
ARC
  8
0
  6
CONTINUOUS
 10
8.335747
 20
-5.542610
 40
0.213443
 50
336.692078
 51
359.195709
  0
ARC
  8
0
  6
CONTINUOUS
 10
8.127022
 20
-5.461918
 40
0.437144
 50
323.344208
 51
337.803558
  0
ARC
  8
0
  6
CONTINUOUS
 10
7.646778
 20
-5.124844
 40
1.023777
 50
312.704773
 51
324.256165
  0
ARC
  8
0
  6
CONTINUOUS
 10
7.324860
 20
-4.828342
 40
1.460424
 50
307.249298
 51
314.096527
  0
ARC
  8
0
  6
CONTINUOUS
 10
8.275074
 20
-6.446487
 40
0.460423
 50
88.827614
 51
98.272095
  0
LINE
  8
0
  6
CONTINUOUS
 10
8.564323
 20
-5.986160
 11
8.284496
 21
-5.986160
  0
LINE
  8
0
  6
CONTINUOUS
 10
8.564323
 20
-6.070301
 11
8.564323
 21
-5.986160
  0
LINE
  8
0
  6
CONTINUOUS
 10
8.109612
 20
-6.070301
 11
8.564323
 21
-6.070301
  0
LINE
  8
0
  6
CONTINUOUS
 10
8.109612
 20
-5.962261
 11
8.109612
 21
-6.070301
  0
ARC
  8
0
  6
CONTINUOUS
 10
6.554577
 20
-4.119217
 40
2.411422
 50
310.155426
 51
316.740295
  0
ARC
  8
0
  6
CONTINUOUS
 10
7.690697
 20
-5.196518
 40
0.845777
 50
317.143951
 51
327.511169
  0
ARC
  8
0
  6
CONTINUOUS
 10
8.167706
 20
-5.505421
 40
0.277533
 50
328.406799
 51
346.190186
  0
ARC
  8
0
  6
CONTINUOUS
 10
8.316734
 20
-5.547298
 40
0.122922
 50
348.565887
 51
359.764923
  0
ARC
  8
0
  6
CONTINUOUS
 10
8.336250
 20
-5.547066
 40
0.103407
 50
359.592072
 51
55.959076
  0
ARC
  8
0
  6
CONTINUOUS
 10
8.305496
 20
-5.589020
 40
0.155400
 50
55.222591
 51
91.726082
  0
ARC
  8
0
  6
CONTINUOUS
 10
8.303188
 20
-5.699402
 40
0.265722
 50
90.511208
 51
110.612877
  0
ARC
  8
0
  6
CONTINUOUS
 10
8.356594
 20
-5.857952
 40
0.432962
 50
109.841171
 51
120.430183
  0
LINE
  8
0
  6
CONTINUOUS
 10
8.126194
 20
-5.392311
 11
8.137302
 21
-5.484631
  0
ARC
  8
0
  6
CONTINUOUS
 10
8.353203
 20
-5.935684
 40
0.588889
 50
99.072800
 51
112.674202
  0
ARC
  8
0
  6
CONTINUOUS
 10
8.314739
 20
-5.729137
 40
0.378901
 50
90.158485
 51
98.254471
  0
LINE
  8
0
  6
CONTINUOUS
 10
10.050377
 20
-6.070217
 11
10.173840
 21
-6.070217
  0
LINE
  8
0
  6
CONTINUOUS
 10
10.173840
 20
-6.070217
 11
10.443981
 21
-5.358551
  0
LINE
  8
0
  6
CONTINUOUS
 10
9.778214
 20
-5.358551
 11
10.050377
 21
-6.070217
  0
LINE
  8
0
  6
CONTINUOUS
 10
9.889748
 20
-5.358551
 11
9.778214
 21
-5.358551
  0
LINE
  8
0
  6
CONTINUOUS
 10
10.064503
 20
-5.827526
 11
9.889748
 21
-5.358551
  0
ARC
  8
0
  6
CONTINUOUS
 10
8.683060
 20
-6.346710
 40
1.475782
 50
14.142865
 51
20.597712
  0
ARC
  8
0
  6
CONTINUOUS
 10
11.475941
 20
-6.317574
 40
1.401584
 50
159.534760
 51
166.320740
  0
LINE
  8
0
  6
CONTINUOUS
 10
10.337185
 20
-5.358551
 11
10.162815
 21
-5.827526
  0
LINE
  8
0
  6
CONTINUOUS
 10
10.443981
 20
-5.358551
 11
10.337185
 21
-5.358551
  0
ARC
  8
0
  6
CONTINUOUS
 10
10.071011
 20
-5.845226
 40
0.554253
 50
336.177063
 51
343.270996
  0
LINE
  8
0
  6
CONTINUOUS
 10
10.929787
 20
-5.627808
 11
10.929787
 21
-5.752514
  0
LINE
  8
0
  6
CONTINUOUS
 10
10.929787
 20
-5.752514
 11
11.146095
 21
-5.752514
  0
LINE
  8
0
  6
CONTINUOUS
 10
11.146095
 20
-5.752514
 11
11.146095
 21
-5.627808
  0
LINE
  8
0
  6
CONTINUOUS
 10
10.638889
 20
-5.627808
 11
10.638889
 21
-5.752514
  0
LINE
  8
0
  6
CONTINUOUS
 10
10.638889
 20
-5.752514
 11
10.849773
 21
-5.752514
  0
LINE
  8
0
  6
CONTINUOUS
 10
10.849773
 20
-5.752514
 11
10.849773
 21
-5.627808
  0
LINE
  8
0
  6
CONTINUOUS
 10
11.009323
 20
-5.988960
 11
11.032795
 21
-6.068321
  0
LINE
  8
0
  6
CONTINUOUS
 10
11.055790
 20
-5.990726
 11
11.009323
 21
-5.988960
  0
LINE
  8
0
  6
CONTINUOUS
 10
11.109795
 20
-5.992317
 11
11.055790
 21
-5.990726
  0
ARC
  8
0
  6
CONTINUOUS
 10
11.111946
 20
-5.947227
 40
0.045144
 50
267.266632
 51
295.164886
  0
ARC
  8
0
  6
CONTINUOUS
 10
11.117737
 20
-5.962879
 40
0.028549
 50
298.004242
 51
6.611782
  0
LINE
  8
0
  6
CONTINUOUS
 10
11.146095
 20
-5.826965
 11
11.146095
 21
-5.959595
  0
LINE
  8
0
  6
CONTINUOUS
 10
10.929787
 20
-5.826965
 11
11.146095
 21
-5.826965
  0
LINE
  8
0
  6
CONTINUOUS
 10
10.929787
 20
-6.063286
 11
10.929787
 21
-5.826965
  0
LINE
  8
0
  6
CONTINUOUS
 10
10.849773
 20
-6.063286
 11
10.929787
 21
-6.063286
  0
LINE
  8
0
  6
CONTINUOUS
 10
10.849773
 20
-5.826965
 11
10.849773
 21
-6.063286
  0
LINE
  8
0
  6
CONTINUOUS
 10
10.635830
 20
-5.826965
 11
10.849773
 21
-5.826965
  0
ARC
  8
0
  6
CONTINUOUS
 10
9.632511
 20
-5.727116
 40
1.008277
 50
344.015808
 51
354.316620
  0
LINE
  8
0
  6
CONTINUOUS
 10
10.502720
 20
-6.018673
 11
10.578041
 21
-6.069096
  0
ARC
  8
0
  6
CONTINUOUS
 10
10.015167
 20
-5.793655
 40
0.536972
 50
335.225494
 51
349.227631
  0
ARC
  8
0
  6
CONTINUOUS
 10
9.694263
 20
-5.726284
 40
0.864838
 50
348.816681
 51
0.849864
  0
LINE
  8
0
  6
CONTINUOUS
 10
10.559006
 20
-5.355061
 11
10.559006
 21
-5.713455
  0
LINE
  8
0
  6
CONTINUOUS
 10
11.226025
 20
-5.355061
 11
10.559006
 21
-5.355061
  0
LINE
  8
0
  6
CONTINUOUS
 10
11.226025
 20
-5.966183
 11
11.226025
 21
-5.355061
  0
ARC
  8
0
  6
CONTINUOUS
 10
11.034294
 20
-5.969971
 40
0.191766
 50
347.888214
 51
1.132614
  0
ARC
  8
0
  6
CONTINUOUS
 10
11.151810
 20
-5.996777
 40
0.071260
 50
310.758240
 51
349.134766
  0
ARC
  8
0
  6
CONTINUOUS
 10
11.155823
 20
-5.982872
 40
0.080094
 50
283.982788
 51
302.057098
  0
ARC
  8
0
  6
CONTINUOUS
 10
11.122173
 20
-5.852699
 40
0.214544
 50
274.380676
 51
284.302826
  0
ARC
  8
0
  6
CONTINUOUS
 10
11.097088
 20
-5.564201
 40
0.504124
 50
269.799561
 51
274.718872
  0
LINE
  8
0
  6
CONTINUOUS
 10
11.032795
 20
-6.068321
 11
11.095325
 21
-6.068321
  0
LINE
  8
0
  6
CONTINUOUS
 10
10.638889
 20
-5.429386
 11
10.638889
 21
-5.553398
  0
LINE
  8
0
  6
CONTINUOUS
 10
10.638889
 20
-5.553398
 11
10.849773
 21
-5.553398
  0
LINE
  8
0
  6
CONTINUOUS
 10
10.849773
 20
-5.553398
 11
10.849773
 21
-5.429386
  0
LINE
  8
0
  6
CONTINUOUS
 10
10.929787
 20
-5.429386
 11
10.929787
 21
-5.553398
  0
LINE
  8
0
  6
CONTINUOUS
 10
10.929787
 20
-5.553398
 11
11.146095
 21
-5.553398
  0
LINE
  8
0
  6
CONTINUOUS
 10
11.146095
 20
-5.553398
 11
11.146095
 21
-5.429386
  0
ARC
  8
0
  6
CONTINUOUS
 10
9.340988
 20
-5.620892
 40
0.275330
 50
12.283663
 51
29.758091
  0
ARC
  8
0
  6
CONTINUOUS
 10
8.853367
 20
-5.713245
 40
0.771555
 50
359.283905
 51
11.280905
  0
ARC
  8
0
  6
CONTINUOUS
 10
10.223518
 20
-5.710983
 40
0.874884
 50
174.200760
 51
180.336853
  0
ARC
  8
0
  6
CONTINUOUS
 10
9.873722
 20
-5.675316
 40
0.523275
 50
167.865677
 51
174.216034
  0
ARC
  8
0
  6
CONTINUOUS
 10
9.682552
 20
-5.634033
 40
0.327699
 50
159.756592
 51
167.896515
  0
ARC
  8
0
  6
CONTINUOUS
 10
9.567490
 20
-5.591534
 40
0.205035
 50
149.310074
 51
159.773956
  0
ARC
  8
0
  6
CONTINUOUS
 10
9.486828
 20
-5.539261
 40
0.109057
 50
89.946518
 51
151.297760
  0
ARC
  8
0
  6
CONTINUOUS
 10
9.483368
 20
-5.543533
 40
0.113387
 50
31.533169
 51
88.200272
  0
ARC
  8
0
  6
CONTINUOUS
 10
8.767246
 20
-5.620914
 40
0.275650
 50
12.274504
 51
29.726036
  0
ARC
  8
0
  6
CONTINUOUS
 10
8.279327
 20
-5.713200
 40
0.772154
 50
359.281036
 51
11.268545
  0
ARC
  8
0
  6
CONTINUOUS
 10
9.647537
 20
-5.710915
 40
0.872342
 50
174.188461
 51
180.342468
  0
ARC
  8
0
  6
CONTINUOUS
 10
9.298084
 20
-5.675114
 40
0.521061
 50
167.836182
 51
174.213821
  0
ARC
  8
0
  6
CONTINUOUS
 10
9.108059
 20
-5.633831
 40
0.326604
 50
159.723572
 51
167.891602
  0
ARC
  8
0
  6
CONTINUOUS
 10
8.993443
 20
-5.591312
 40
0.204357
 50
149.269196
 51
159.769913
  0
ARC
  8
0
  6
CONTINUOUS
 10
8.913479
 20
-5.539322
 40
0.109119
 50
89.949074
 51
151.278412
  0
ARC
  8
0
  6
CONTINUOUS
 10
8.910015
 20
-5.543472
 40
0.113327
 50
31.516157
 51
88.200020
  0
LINE
  8
0
  6
CONTINUOUS
 10
10.849773
 20
-5.627811
 11
10.638889
 21
-5.627811
  0
LINE
  8
0
  6
CONTINUOUS
 10
11.146095
 20
-5.627811
 11
10.929787
 21
-5.627811
  0
LINE
  8
0
  6
CONTINUOUS
 10
10.849773
 20
-5.429386
 11
10.638889
 21
-5.429386
  0
LINE
  8
0
  6
CONTINUOUS
 10
11.146095
 20
-5.429386
 11
10.929787
 21
-5.429386
  0
LINE
  8
0
  6
CONTINUOUS
 10
-29.000000
 20
42.000000
 11
-29.000000
 21
38.500000
  0
LINE
  8
0
  6
CONTINUOUS
 10
-4.714287
 20
42.000000
 11
-4.714287
 21
38.500000
  0
LINE
  8
0
  6
CONTINUOUS
 10
-29.000000
 20
42.000000
 11
-4.714287
 21
42.000000
  0
LINE
  8
0
  6
CONTINUOUS
 10
-29.000000
 20
38.500000
 11
-4.714287
 21
38.500000
  0
LINE
  8
0
  6
CONTINUOUS
 10
-5.976700
 20
6.363602
 11
-5.847698
 21
6.592400
  0
LINE
  8
0
  6
CONTINUOUS
 10
-5.847698
 20
6.592400
 11
-5.656601
 21
6.772598
  0
LINE
  8
0
  6
CONTINUOUS
 10
-5.656601
 20
6.772598
 11
-5.497700
 21
6.859699
  0
LINE
  8
0
  6
CONTINUOUS
 10
-6.215500
 20
-7.784000
 11
-6.220299
 21
-7.777901
  0
LINE
  8
0
  6
CONTINUOUS
 10
-6.174999
 20
5.766998
 11
-5.976700
 21
6.363602
  0
LINE
  8
0
  6
CONTINUOUS
 10
7.378967
 20
2.097748
 11
7.378967
 21
1.943062
  0
LINE
  8
0
  6
CONTINUOUS
 10
7.378967
 20
1.775288
 11
7.378967
 21
1.554108
  0
LINE
  8
0
  6
CONTINUOUS
 10
7.079327
 20
-8.191639
 11
7.079327
 21
-9.829140
  0
LINE
  8
0
  6
CONTINUOUS
 10
12.129330
 20
-9.954140
 11
7.204327
 21
-9.954140
  0
LINE
  8
0
  6
CONTINUOUS
 10
12.254330
 20
-8.191639
 11
12.254330
 21
-9.829140
  0
LINE
  8
0
  6
CONTINUOUS
 10
7.041828
 20
-7.441639
 11
7.991829
 21
-7.441639
  0
LINE
  8
0
  6
CONTINUOUS
 10
7.079327
 20
-9.808159
 11
7.079327
 21
-9.829140
  0
ARC
  8
0
  6
CONTINUOUS
 10
7.204327
 20
-9.829140
 40
0.125000
 50
180.000000
 51
270.000000
  0
ARC
  8
0
  6
CONTINUOUS
 10
12.129330
 20
-9.829140
 40
0.125000
 50
270.000000
 51
0.000000
  0
ARC
  8
0
  6
CONTINUOUS
 10
12.379330
 20
-8.191639
 40
0.125000
 50
134.427032
 51
180.000000
  0
LINE
  8
0
  6
CONTINUOUS
 10
11.291828
 20
-7.341640
 11
11.291828
 21
-7.272888
  0
ARC
  8
0
  6
CONTINUOUS
 10
6.954327
 20
-8.191639
 40
0.125000
 50
0.000000
 51
45.572971
  0
ARC
  8
0
  6
CONTINUOUS
 10
7.916828
 20
-7.316639
 40
0.125000
 50
270.000000
 51
0.000000
  0
ARC
  8
0
  6
CONTINUOUS
 10
11.416828
 20
-7.316639
 40
0.125000
 50
180.000000
 51
270.000000
  0
LINE
  8
0
  6
CONTINUOUS
 10
8.041828
 20
-7.272888
 11
8.041828
 21
-7.341640
  0
LINE
  8
0
  6
CONTINUOUS
 10
3.416828
 20
-10.279140
 11
3.416828
 21
6.668564
  0
LINE
  8
0
  6
CONTINUOUS
 10
15.416828
 20
-10.779140
 11
3.916828
 21
-10.779140
  0
ARC
  8
0
  6
CONTINUOUS
 10
3.916828
 20
-10.279140
 40
0.500000
 50
180.000000
 51
270.000000
  0
ARC
  8
0
  6
CONTINUOUS
 10
15.416828
 20
-10.279140
 40
0.500000
 50
270.000000
 51
0.000000
  0
LINE
  8
0
  6
CONTINUOUS
 10
15.916828
 20
6.668564
 11
15.916828
 21
-10.279140
  0
LINE
  8
0
  6
CONTINUOUS
 10
7.079327
 20
-9.808159
 11
7.079327
 21
-9.829140
  0
ARC
  8
0
  6
CONTINUOUS
 10
0.416828
 20
7.220860
 40
0.750000
 50
90.000000
 51
180.000000
  0
LINE
  8
0
  6
CONTINUOUS
 10
19.666828
 20
7.220860
 11
19.666828
 21
-11.279140
  0
ARC
  8
0
  6
CONTINUOUS
 10
18.916828
 20
7.220860
 40
0.750000
 50
0.000000
 51
90.000000
  0
LINE
  8
0
  6
CONTINUOUS
 10
0.416828
 20
7.970860
 11
18.916828
 21
7.970860
  0
LINE
  8
0
  6
CONTINUOUS
 10
-0.333172
 20
-11.279140
 11
-0.333172
 21
7.220860
  0
ARC
  8
0
  6
CONTINUOUS
 10
0.416828
 20
-11.279140
 40
0.750000
 50
180.000000
 51
270.000000
  0
LINE
  8
0
  6
CONTINUOUS
 10
18.916828
 20
-12.029140
 11
0.416828
 21
-12.029140
  0
ARC
  8
0
  6
CONTINUOUS
 10
18.916828
 20
-11.279140
 40
0.750000
 50
270.000000
 51
0.000000
  0
LINE
  8
0
  6
CONTINUOUS
 10
12.229328
 20
-7.591640
 11
12.229328
 21
-9.816639
  0
ARC
  8
0
  6
CONTINUOUS
 10
12.354328
 20
-8.166641
 40
0.125000
 50
120.000015
 51
180.000000
  0
ARC
  8
0
  6
CONTINUOUS
 10
6.979328
 20
-8.166641
 40
0.125000
 50
0.000000
 51
59.999981
  0
LINE
  8
0
  6
CONTINUOUS
 10
12.291828
 20
-8.041641
 11
12.254330
 21
-8.041641
  0
LINE
  8
0
  6
CONTINUOUS
 10
7.079327
 20
-8.041641
 11
7.041828
 21
-8.041641
  0
LINE
  8
0
  6
CONTINUOUS
 10
7.041828
 20
-7.466640
 11
7.229328
 21
-7.466640
  0
LINE
  8
0
  6
CONTINUOUS
 10
12.104328
 20
-7.466640
 11
12.291828
 21
-7.466640
  0
ARC
  8
0
  6
CONTINUOUS
 10
12.254330
 20
-8.166641
 40
0.125000
 50
90.000000
 51
101.536957
  0
ARC
  8
0
  6
CONTINUOUS
 10
7.079327
 20
-8.166641
 40
0.125000
 50
78.463043
 51
90.000000
  0
ARC
  8
0
  6
CONTINUOUS
 10
7.916828
 20
-7.341640
 40
0.125000
 50
270.000000
 51
0.000000
  0
ARC
  8
0
  6
CONTINUOUS
 10
11.416828
 20
-7.341640
 40
0.125000
 50
180.000000
 51
270.000000
  0
ARC
  8
0
  6
CONTINUOUS
 10
12.104328
 20
-9.816639
 40
0.125000
 50
270.000000
 51
0.000000
  0
ARC
  8
0
  6
CONTINUOUS
 10
7.229328
 20
-9.816639
 40
0.125000
 50
180.000000
 51
270.000000
  0
LINE
  8
0
  6
CONTINUOUS
 10
12.104328
 20
-9.941639
 11
7.229328
 21
-9.941639
  0
ARC
  8
0
  6
CONTINUOUS
 10
12.104328
 20
-7.591640
 40
0.125000
 50
0.000000
 51
90.000000
  0
ARC
  8
0
  6
CONTINUOUS
 10
12.104328
 20
-9.204140
 40
0.125000
 50
270.000000
 51
0.000000
  0
LINE
  8
0
  6
CONTINUOUS
 10
7.229328
 20
-9.329140
 11
12.104328
 21
-9.329140
  0
LINE
  8
0
  6
CONTINUOUS
 10
7.229328
 20
-7.466640
 11
12.104328
 21
-7.466640
  0
ARC
  8
0
  6
CONTINUOUS
 10
7.229328
 20
-7.591640
 40
0.125000
 50
90.000000
 51
180.000000
  0
LINE
  8
0
  6
CONTINUOUS
 10
7.104328
 20
-9.816639
 11
7.104328
 21
-7.591640
  0
ARC
  8
0
  6
CONTINUOUS
 10
7.229328
 20
-9.204140
 40
0.125000
 50
180.000000
 51
270.000000
  0
LINE
  8
0
  6
CONTINUOUS
 10
11.341827
 20
-7.441639
 11
12.291828
 21
-7.441639
  0
ARC
  8
0
  6
CONTINUOUS
 10
13.979958
 20
-7.597607
 40
0.125283
 50
180.000000
 51
270.000000
  0
LINE
  8
0
  6
CONTINUOUS
 10
13.979958
 20
-7.722889
 11
12.291828
 21
-7.722889
  0
ARC
  8
0
  6
CONTINUOUS
 10
14.716156
 20
-7.147606
 40
0.125283
 50
180.000000
 51
270.000000
  0
LINE
  8
0
  6
CONTINUOUS
 10
14.550278
 20
-7.249001
 11
13.900085
 21
-7.646427
  0
LINE
  8
0
  6
CONTINUOUS
 10
15.916828
 20
-7.272888
 11
14.716156
 21
-7.272888
  0
LINE
  8
0
  6
CONTINUOUS
 10
15.916828
 20
-7.397888
 11
14.400490
 21
-7.397888
  0
LINE
  8
0
  6
CONTINUOUS
 10
4.783379
 20
-7.249001
 11
5.433571
 21
-7.646427
  0
ARC
  8
0
  6
CONTINUOUS
 10
4.617496
 20
-7.147606
 40
0.125283
 50
270.000000
 51
0.000000
  0
ARC
  8
0
  6
CONTINUOUS
 10
5.353699
 20
-7.597607
 40
0.125283
 50
270.000000
 51
0.000000
  0
LINE
  8
0
  6
CONTINUOUS
 10
5.353699
 20
-7.722889
 11
7.041828
 21
-7.722889
  0
ARC
  8
0
  6
CONTINUOUS
 10
13.763542
 20
5.041409
 40
2.042707
 50
49.378933
 51
90.000000
  0
ARC
  8
0
  6
CONTINUOUS
 10
5.570114
 20
5.041409
 40
2.042707
 50
90.000000
 51
130.621063
  0
LINE
  8
0
  6
CONTINUOUS
 10
14.590874
 20
5.871883
 11
15.916828
 21
5.871883
  0
LINE
  8
0
  6
CONTINUOUS
 10
14.590874
 20
5.871883
 11
13.741386
 21
6.831116
  0
LINE
  8
0
  6
CONTINUOUS
 10
4.742783
 20
5.871883
 11
5.592270
 21
6.831116
  0
LINE
  8
0
  6
CONTINUOUS
 10
3.416828
 20
5.871883
 11
4.742783
 21
5.871883
  0
ARC
  8
0
  6
CONTINUOUS
 10
-33.431992
 20
3.559837
 40
47.286667
 50
0.000000
 51
3.966871
  0
ARC
  8
0
  6
CONTINUOUS
 10
52.765648
 20
3.559837
 40
47.286667
 50
176.033127
 51
180.000000
  0
LINE
  8
0
  6
CONTINUOUS
 10
5.592270
 20
6.831116
 11
13.741386
 21
6.831116
  0
LINE
  8
0
  6
CONTINUOUS
 10
15.916828
 20
5.885647
 11
15.093452
 21
6.591888
  0
LINE
  8
0
  6
CONTINUOUS
 10
4.240204
 20
6.591888
 11
3.416828
 21
5.885647
  0
LINE
  8
0
  6
CONTINUOUS
 10
13.763542
 20
7.084118
 11
5.570114
 21
7.084118
  0
LINE
  8
0
  6
CONTINUOUS
 10
13.854675
 20
3.559837
 11
13.854675
 21
-7.597607
  0
LINE
  8
0
  6
CONTINUOUS
 10
5.478981
 20
3.559837
 11
5.478981
 21
-7.597607
  0
LINE
  8
0
  6
CONTINUOUS
 10
14.590874
 20
-7.147606
 11
14.590874
 21
5.871883
  0
LINE
  8
0
  6
CONTINUOUS
 10
4.742783
 20
-7.147606
 11
4.742783
 21
5.871883
  0
LINE
  8
0
  6
CONTINUOUS
 10
3.416828
 20
-7.272888
 11
4.617496
 21
-7.272888
  0
LINE
  8
0
  6
CONTINUOUS
 10
12.291828
 20
-7.272888
 11
7.041828
 21
-7.272888
  0
LINE
  8
0
  6
CONTINUOUS
 10
12.291828
 20
-7.272888
 11
12.291828
 21
-8.977863
  0
LINE
  8
0
  6
CONTINUOUS
 10
13.616829
 20
-9.397888
 11
13.616829
 21
-8.977863
  0
LINE
  8
0
  6
CONTINUOUS
 10
7.041828
 20
-7.272888
 11
7.041828
 21
-8.977863
  0
LINE
  8
0
  6
CONTINUOUS
 10
3.416828
 20
-7.397888
 11
4.933167
 21
-7.397888
  0
LINE
  8
0
  6
CONTINUOUS
 10
5.716827
 20
-9.397888
 11
5.716827
 21
-8.977863
  0
ARC
  8
0
  6
CONTINUOUS
 10
3.541828
 20
6.668564
 40
0.125000
 50
130.621063
 51
180.000000
  0
ARC
  8
0
  6
CONTINUOUS
 10
15.791828
 20
6.668564
 40
0.125000
 50
0.000000
 51
49.378937
  0
LINE
  8
0
  6
CONTINUOUS
 10
5.716827
 20
-8.977863
 11
7.041828
 21
-8.977863
  0
LINE
  8
0
  6
CONTINUOUS
 10
12.291828
 20
-8.977863
 11
13.616829
 21
-8.977863
  0
ARC
  8
0
  6
CONTINUOUS
 10
15.666828
 20
-9.147888
 40
0.250000
 50
270.000000
 51
0.000000
  0
LINE
  8
0
  6
CONTINUOUS
 10
13.616829
 20
-9.397888
 11
15.666828
 21
-9.397888
  0
LINE
  8
0
  6
CONTINUOUS
 10
3.666828
 20
-9.397888
 11
5.716827
 21
-9.397888
  0
ARC
  8
0
  6
CONTINUOUS
 10
3.666828
 20
-9.147888
 40
0.250000
 50
180.000000
 51
270.000000
  0
LINE
  8
0
  6
CONTINUOUS
 10
15.873211
 20
6.763443
 11
14.927479
 21
7.574635
  0
LINE
  8
0
  6
CONTINUOUS
 10
4.406178
 20
7.574635
 11
3.460445
 21
6.763443
  0
LINE
  8
0
  6
CONTINUOUS
 10
13.830929
 20
7.853928
 11
5.502728
 21
7.853928
  0
ARC
  8
0
  6
CONTINUOUS
 10
5.376019
 20
6.059132
 40
1.799262
 50
85.961716
 51
122.617157
  0
ARC
  8
0
  6
CONTINUOUS
 10
13.947121
 20
6.017845
 40
1.839755
 50
57.800087
 51
93.621040
  0
LINE
  8
0
  6
CONTINUOUS
 10
3.416828
 20
-9.579140
 11
7.079327
 21
-9.579140
  0
LINE
  8
0
  6
CONTINUOUS
 10
12.254330
 20
-9.579140
 11
15.916828
 21
-9.579140
  0
LINE
  8
0
  6
CONTINUOUS
 10
11.217651
 20
-4.233932
 11
11.217052
 21
-3.930481
  0
ARC
  8
0
  6
CONTINUOUS
 10
10.733128
 20
-3.938179
 40
0.483984
 50
0.911320
 51
72.142197
  0
ARC
  8
0
  6
CONTINUOUS
 10
10.700184
 20
-4.055958
 40
0.606209
 50
72.592186
 51
89.888916
  0
LINE
  8
0
  6
CONTINUOUS
 10
10.701359
 20
-3.449749
 11
10.179340
 21
-3.449230
  0
ARC
  8
0
  6
CONTINUOUS
 10
9.818871
 20
-3.556515
 40
0.376095
 50
16.573767
 51
88.585648
  0
LINE
  8
0
  6
CONTINUOUS
 10
9.828152
 20
-3.180534
 11
9.558872
 21
-3.179028
  0
ARC
  8
0
  6
CONTINUOUS
 10
9.560699
 20
-3.230595
 40
0.051599
 50
92.030022
 51
177.965439
  0
LINE
  8
0
  6
CONTINUOUS
 10
9.509132
 20
-3.228760
 11
9.509132
 21
-3.336800
  0
LINE
  8
0
  6
CONTINUOUS
 10
9.509132
 20
-3.336800
 11
9.173019
 21
-3.334476
  0
ARC
  8
0
  6
CONTINUOUS
 10
9.174961
 20
-3.386066
 40
0.051628
 50
92.155281
 51
177.940018
  0
LINE
  8
0
  6
CONTINUOUS
 10
9.123367
 20
-3.384212
 11
9.123367
 21
-3.416248
  0
ARC
  8
0
  6
CONTINUOUS
 10
9.174973
 20
-3.414471
 40
0.051635
 50
181.971970
 51
267.833710
  0
LINE
  8
0
  6
CONTINUOUS
 10
9.173019
 20
-3.466068
 11
9.509132
 21
-3.466240
  0
LINE
  8
0
  6
CONTINUOUS
 10
9.509132
 20
-3.466240
 11
9.509132
 21
-3.621647
  0
LINE
  8
0
  6
CONTINUOUS
 10
9.509132
 20
-3.621647
 11
9.173019
 21
-3.621647
  0
ARC
  8
0
  6
CONTINUOUS
 10
9.174923
 20
-3.673203
 40
0.051591
 50
92.114128
 51
177.881638
  0
LINE
  8
0
  6
CONTINUOUS
 10
9.123367
 20
-3.671295
 11
9.123367
 21
-3.703465
  0
ARC
  8
0
  6
CONTINUOUS
 10
9.174824
 20
-3.701569
 40
0.051490
 50
182.109650
 51
267.994080
  0
LINE
  8
0
  6
CONTINUOUS
 10
9.173019
 20
-3.753025
 11
9.509136
 21
-3.754276
  0
LINE
  8
0
  6
CONTINUOUS
 10
9.509136
 20
-3.754276
 11
9.509136
 21
-3.859039
  0
ARC
  8
0
  6
CONTINUOUS
 10
9.560600
 20
-3.857220
 40
0.051499
 50
182.025940
 51
268.077637
  0
LINE
  8
0
  6
CONTINUOUS
 10
9.558872
 20
-3.908691
 11
9.828152
 21
-3.910713
  0
ARC
  8
0
  6
CONTINUOUS
 10
9.820076
 20
-3.536095
 40
0.374705
 50
271.235199
 51
343.964294
  0
LINE
  8
0
  6
CONTINUOUS
 10
10.180202
 20
-3.639603
 11
10.713375
 21
-3.639603
  0
ARC
  8
0
  6
CONTINUOUS
 10
10.715694
 20
-4.000622
 40
0.361027
 50
58.797134
 51
90.368317
  0
ARC
  8
0
  6
CONTINUOUS
 10
10.745392
 20
-3.925217
 40
0.281476
 50
357.604462
 51
56.014465
  0
LINE
  8
0
  6
CONTINUOUS
 10
11.026623
 20
-3.936981
 11
11.026882
 21
-4.099106
  0
LINE
  8
0
  6
CONTINUOUS
 10
11.026882
 20
-4.099106
 11
10.747566
 21
-4.099106
  0
ARC
  8
0
  6
CONTINUOUS
 10
10.552097
 20
-4.089001
 40
0.195733
 50
272.031403
 51
357.040955
  0
ARC
  8
0
  6
CONTINUOUS
 10
10.565865
 20
-4.089066
 40
0.195666
 50
182.941513
 51
267.999207
  0
LINE
  8
0
  6
CONTINUOUS
 10
10.370457
 20
-4.099106
 11
8.949562
 21
-4.099106
  0
ARC
  8
0
  6
CONTINUOUS
 10
8.754242
 20
-4.089157
 40
0.195572
 50
271.975433
 51
357.083771
  0
ARC
  8
0
  6
CONTINUOUS
 10
8.767841
 20
-4.089039
 40
0.195694
 50
182.949081
 51
267.991638
  0
LINE
  8
0
  6
CONTINUOUS
 10
8.572407
 20
-4.099106
 11
8.293354
 21
-4.099106
  0
LINE
  8
0
  6
CONTINUOUS
 10
8.293354
 20
-4.099106
 11
8.293354
 21
-3.955498
  0
ARC
  8
0
  6
CONTINUOUS
 10
8.670658
 20
-3.965996
 40
0.377452
 50
100.023300
 51
178.406479
  0
LINE
  8
0
  6
CONTINUOUS
 10
8.604965
 20
-3.594303
 11
8.683556
 21
-3.585564
  0
ARC
  8
0
  6
CONTINUOUS
 10
8.669937
 20
-3.511204
 40
0.075594
 50
280.379395
 51
324.565735
  0
ARC
  8
0
  6
CONTINUOUS
 10
9.674644
 20
-4.035339
 40
1.058379
 50
90.819199
 51
153.011276
  0
ARC
  8
0
  6
CONTINUOUS
 10
9.656105
 20
-4.018902
 40
1.041838
 50
48.807484
 51
89.812523
  0
LINE
  8
0
  6
CONTINUOUS
 10
10.342251
 20
-3.234917
 11
10.359432
 21
-3.250462
  0
ARC
  8
0
  6
CONTINUOUS
 10
10.378597
 20
-3.230652
 40
0.027564
 50
225.947403
 51
269.368622
  0
LINE
  8
0
  6
CONTINUOUS
 10
10.378296
 20
-3.258217
 11
10.567131
 21
-3.258217
  0
ARC
  8
0
  6
CONTINUOUS
 10
10.563446
 20
-3.229160
 40
0.029286
 50
277.229004
 51
357.834106
  0
ARC
  8
0
  6
CONTINUOUS
 10
10.564384
 20
-3.230495
 40
0.028326
 50
0.457931
 51
43.674175
  0
LINE
  8
0
  6
CONTINUOUS
 10
10.584873
 20
-3.210934
 11
10.552402
 21
-3.174591
  0
ARC
  8
0
  6
CONTINUOUS
 10
9.649349
 20
-4.031296
 40
1.244766
 50
43.491310
 51
89.532196
  0
ARC
  8
0
  6
CONTINUOUS
 10
9.674187
 20
-4.035240
 40
1.248758
 50
90.673286
 51
149.606979
  0
LINE
  8
0
  6
CONTINUOUS
 10
8.597038
 20
-3.403458
 11
8.576584
 21
-3.405827
  0
ARC
  8
0
  6
CONTINUOUS
 10
8.678501
 20
-3.972431
 40
0.575697
 50
100.196877
 51
178.314575
  0
ARC
  8
0
  6
CONTINUOUS
 10
8.161400
 20
-4.230869
 40
0.058302
 50
182.120514
 51
267.971649
  0
LINE
  8
0
  6
CONTINUOUS
 10
8.159340
 20
-4.289135
 11
8.435120
 21
-4.289478
  0
ARC
  8
0
  6
CONTINUOUS
 10
8.756920
 20
-4.089123
 40
0.385926
 50
270.603424
 51
328.724365
  0
LINE
  8
0
  6
CONTINUOUS
 10
9.086761
 20
-4.289478
 11
10.233128
 21
-4.289478
  0
ARC
  8
0
  6
CONTINUOUS
 10
10.564007
 20
-4.087299
 40
0.387761
 50
211.426498
 51
269.265228
  0
ARC
  8
0
  6
CONTINUOUS
 10
10.554958
 20
-4.088795
 40
0.386255
 50
270.604767
 51
328.696991
  0
LINE
  8
0
  6
CONTINUOUS
 10
10.884987
 20
-4.289478
 11
11.161842
 21
-4.290127
  0
ARC
  8
0
  6
CONTINUOUS
 10
11.159695
 20
-4.231823
 40
0.058342
 50
272.110840
 51
357.929413
  0
ARC
  8
0
  6
CONTINUOUS
 10
8.765755
 20
-4.087727
 40
0.387329
 50
211.391098
 51
269.294128
  0
LINE
  8
0
  6
CONTINUOUS
 10
8.103054
 20
-3.955498
 11
8.103558
 21
-4.233025
  0
LINE
  8
0
  6
CONTINUOUS
 10
10.584873
 20
-3.210934
 11
10.585045
 21
-3.210934
  0
LINE
  8
0
  6
CONTINUOUS
 10
9.825958
 20
-3.910542
 11
9.828152
 21
-3.910713
  0
CIRCLE
  8
0
  6
CONTINUOUS
 10
-7.004944
 20
-8.397888
 40
0.200000
  0
ARC
  8
0
  6
CONTINUOUS
 10
-8.013515
 20
-7.915421
 40
0.500000
 50
181.000000
 51
271.000000
  0
ARC
  8
0
  6
CONTINUOUS
 10
-7.004944
 20
-8.397888
 40
1.000000
 50
181.000000
 51
91.000000
  0
ARC
  8
0
  6
CONTINUOUS
 10
-7.373058
 20
5.529053
 40
0.500000
 50
112.800011
 51
181.000000
  0
ARC
  8
0
  6
CONTINUOUS
 10
-8.258263
 20
6.106113
 40
0.500000
 50
112.800003
 51
181.000000
  0
CIRCLE
  8
0
  6
CONTINUOUS
 10
-7.004944
 20
-8.397888
 40
0.381250
  0
ARC
  8
0
  6
CONTINUOUS
 10
-7.524502
 20
-7.281788
 40
0.125000
 50
181.000000
 51
271.000000
  0
LINE
  8
0
  6
CONTINUOUS
 10
-7.649483
 20
-7.283970
 11
-7.872982
 21
5.520329
  0
LINE
  8
0
  6
CONTINUOUS
 10
-7.022392
 20
-7.398041
 11
-7.522320
 21
-7.406769
  0
LINE
  8
0
  6
CONTINUOUS
 10
-5.336430
 20
7.876717
 11
-8.452021
 21
6.567043
  0
LINE
  8
0
  6
CONTINUOUS
 10
-7.566814
 20
5.989986
 11
-5.211689
 21
6.979988
  0
ARC
  8
0
  6
CONTINUOUS
 10
-5.288311
 20
7.761349
 40
0.125000
 50
11.000000
 51
112.800003
  0
LINE
  8
0
  6
CONTINUOUS
 10
-5.063164
 20
7.258156
 11
-5.165607
 21
7.785198
  0
ARC
  8
0
  6
CONTINUOUS
 10
-5.308571
 20
7.210453
 40
0.250000
 50
292.799988
 51
11.000000
  0
ARC
  8
0
  6
CONTINUOUS
 10
-6.018185
 20
-7.630550
 40
0.250000
 50
181.000000
 51
217.869904
  0
LINE
  8
0
  6
CONTINUOUS
 10
-6.268147
 20
-7.634914
 11
-6.463745
 21
3.571106
  0
ARC
  8
0
  6
CONTINUOUS
 10
1.035110
 20
3.702000
 40
7.500000
 50
164.018219
 51
181.000000
  0
LINE
  8
0
  6
CONTINUOUS
 10
-8.758186
 20
6.097385
 11
-8.513439
 21
-7.924145
  0
LINE
  8
0
  6
CONTINUOUS
 10
-18.386175
 20
-12.029140
 11
-15.011175
 21
-12.029140
  0
ARC
  8
0
  6
CONTINUOUS
 10
-15.011175
 20
-11.904140
 40
0.125000
 50
270.000000
 51
0.000000
  0
LINE
  8
0
  6
CONTINUOUS
 10
-18.386175
 20
-12.029140
 11
-18.386175
 21
7.970860
  0
ARC
  8
0
  6
CONTINUOUS
 10
-15.011175
 20
7.845860
 40
0.125000
 50
0.000000
 51
90.000000
  0
LINE
  8
0
  6
CONTINUOUS
 10
-15.011175
 20
7.970860
 11
-18.386175
 21
7.970860
  0
LINE
  8
0
  6
CONTINUOUS
 10
-14.886175
 20
-12.029140
 11
-14.886175
 21
7.970860
  0
LINE
  8
0
  6
CONTINUOUS
 10
-7.004944
 20
-9.808159
 11
-7.004944
 21
-9.829140
  0
LINE
  8
0
  6
CONTINUOUS
 10
-7.004944
 20
-10.529140
 11
-7.004944
 21
-9.808159
  0
LINE
  8
0
  6
CONTINUOUS
 10
-10.423676
 20
-12.029140
 11
-14.886175
 21
-12.029140
  0
ARC
  8
0
  6
CONTINUOUS
 10
-10.423676
 20
-11.654140
 40
0.375000
 50
270.000000
 51
0.000000
  0
LINE
  8
0
  6
CONTINUOUS
 10
-10.048676
 20
-10.779140
 11
-7.254944
 21
-10.779140
  0
ARC
  8
0
  6
CONTINUOUS
 10
-7.254944
 20
-10.529140
 40
0.250000
 50
270.000000
 51
0.000000
  0
ARC
  8
0
  6
CONTINUOUS
 10
-7.254944
 20
-9.808159
 40
0.250000
 50
0.000000
 51
80.405930
  0
ARC
  8
0
  6
CONTINUOUS
 10
-7.004944
 20
-8.329140
 40
1.250000
 50
194.477509
 51
260.405945
  0
ARC
  8
0
  6
CONTINUOUS
 10
-8.457312
 20
-8.704140
 40
0.250000
 50
14.477512
 51
90.000000
  0
LINE
  8
0
  6
CONTINUOUS
 10
-8.548676
 20
-8.454140
 11
-8.457312
 21
-8.454140
  0
ARC
  8
0
  6
CONTINUOUS
 10
-8.548676
 20
-8.204140
 40
0.250000
 50
180.000000
 51
270.000000
  0
LINE
  8
0
  6
CONTINUOUS
 10
-10.048676
 20
6.720860
 11
-9.048676
 21
6.720860
  0
ARC
  8
0
  6
CONTINUOUS
 10
-9.048676
 20
6.470860
 40
0.250000
 50
0.000000
 51
90.000000
  0
LINE
  8
0
  6
CONTINUOUS
 10
-8.798676
 20
6.470860
 11
-8.798676
 21
-8.204140
  0
LINE
  8
0
  6
CONTINUOUS
 10
-10.048676
 20
7.595860
 11
-10.048676
 21
-11.654140
  0
ARC
  8
0
  6
CONTINUOUS
 10
-10.423676
 20
7.595860
 40
0.375000
 50
0.000000
 51
90.000000
  0
LINE
  8
0
  6
CONTINUOUS
 10
-14.886175
 20
7.970860
 11
-10.423676
 21
7.970860
  0
ARC
  8
0
  6
CONTINUOUS
 10
-8.673676
 20
5.595860
 40
0.125000
 50
180.000000
 51
233.702347
  0
ARC
  8
0
  6
CONTINUOUS
 10
-8.673676
 20
2.345860
 40
0.125000
 50
99.754051
 51
180.000000
  0
LINE
  8
0
  6
CONTINUOUS
 10
-40.000000
 20
42.500000
 11
-40.000000
 21
-42.500000
  0
LINE
  8
0
  6
CONTINUOUS
 10
-40.000000
 20
42.500000
 11
40.000000
 21
42.500000
  0
LINE
  8
0
  6
CONTINUOUS
 10
-40.000000
 20
34.500000
 11
40.000000
 21
34.500000
  0
LINE
  8
0
  6
CONTINUOUS
 10
-30.000000
 20
42.500000
 11
-30.000000
 21
34.500000
  0
LINE
  8
0
  6
CONTINUOUS
 10
-40.000000
 20
-42.500000
 11
40.000000
 21
-42.500000
  0
LINE
  8
0
  6
CONTINUOUS
 10
40.000000
 20
42.500000
 11
40.000000
 21
-42.500000
  0
LINE
  8
0
  6
CONTINUOUS
 10
-35.000000
 20
-31.500000
 11
35.000000
 21
-31.500000
  0
LINE
  8
0
  6
CONTINUOUS
 10
-20.000000
 20
-31.500000
 11
-20.000000
 21
-37.500000
  0
LINE
  8
0
  6
CONTINUOUS
 10
-35.000000
 20
-37.500000
 11
35.000000
 21
-37.500000
  0
LINE
  8
0
  6
CONTINUOUS
 10
-35.000000
 20
-31.500000
 11
-35.000000
 21
-37.500000
  0
LINE
  8
0
  6
CONTINUOUS
 10
35.000000
 20
-31.500000
 11
35.000000
 21
-37.500000
  0
TEXT
  8
0
 10
-31.583332
 20
-36.000000
 40
3.000000
  1
定　格
 41
0.833000
  0
LINE
  8
0
  6
CONTINUOUS
 10
-18.386175
 20
12.158596
 11
-10.048676
 21
12.158596
  0
LINE
  8
0
  6
CONTINUOUS
 10
-33.138451
 20
12.158596
 11
-18.386175
 21
12.158596
  0
LINE
  8
0
  6
CONTINUOUS
 10
-18.386175
 20
7.970860
 11
-18.386175
 21
14.444595
  0
LINE
  8
0
  6
CONTINUOUS
 10
-10.048676
 20
7.595860
 11
-10.048676
 21
14.444595
  0
LINE
  8
0
  6
CONTINUOUS
 10
-18.386175
 20
12.158596
 11
-24.736176
 21
12.158596
  0
LINE
  8
0
  6
CONTINUOUS
 10
-10.048676
 20
12.158596
 11
-3.698677
 21
12.158596
  0
LINE
  8
0
  6
CONTINUOUS
 10
-18.386175
 20
16.813313
 11
-5.058571
 21
16.813313
  0
LINE
  8
0
  6
CONTINUOUS
 10
-18.386175
 20
7.970860
 11
-18.386175
 21
19.099312
  0
LINE
  8
0
  6
CONTINUOUS
 10
-5.058571
 20
7.210453
 11
-5.058571
 21
19.099312
  0
LINE
  8
0
  6
CONTINUOUS
 10
-0.333172
 20
12.158596
 11
19.666828
 21
12.158596
  0
LINE
  8
0
  6
CONTINUOUS
 10
-0.333172
 20
7.220860
 11
-0.333172
 21
14.444595
  0
LINE
  8
0
  6
CONTINUOUS
 10
19.666828
 20
7.220860
 11
19.666828
 21
14.444595
  0
LINE
  8
0
  6
CONTINUOUS
 10
26.175903
 20
7.970860
 11
26.175903
 21
-12.029140
  0
LINE
  8
0
  6
CONTINUOUS
 10
18.916828
 20
7.970860
 11
28.461899
 21
7.970860
  0
LINE
  8
0
  6
CONTINUOUS
 10
18.916828
 20
-12.029140
 11
28.461899
 21
-12.029140
  0
LINE
  8
0
  6
CONTINUOUS
 10
-6.222054
 20
-7.775200
 11
-6.220356
 21
-7.777897
  0
LINE
  8
0
  6
CONTINUOUS
 10
10.618755
 20
1.593212
 11
10.677437
 21
1.655006
  0
LINE
  8
0
  6
CONTINUOUS
 10
10.677437
 20
1.655006
 11
10.723259
 21
1.786652
  0
LINE
  8
0
  6
CONTINUOUS
 10
10.723259
 20
1.786652
 11
10.699314
 21
1.928978
  0
LINE
  8
0
  6
CONTINUOUS
 10
10.699314
 20
1.928978
 11
10.645802
 21
2.001629
  0
LINE
  8
0
  6
CONTINUOUS
 10
10.645802
 20
2.001629
 11
10.577389
 21
2.050343
  0
LINE
  8
0
  6
CONTINUOUS
 10
10.577389
 20
2.050343
 11
10.439266
 21
2.080524
  0
LINE
  8
0
  6
CONTINUOUS
 10
10.439266
 20
2.080524
 11
10.300724
 21
2.050648
  0
LINE
  8
0
  6
CONTINUOUS
 10
10.300724
 20
2.050648
 11
10.232559
 21
2.001629
  0
LINE
  8
0
  6
CONTINUOUS
 10
10.232559
 20
2.001629
 11
10.178955
 21
1.928997
  0
LINE
  8
0
  6
CONTINUOUS
 10
10.178955
 20
1.928997
 11
10.154987
 21
1.786594
  0
LINE
  8
0
  6
CONTINUOUS
 10
10.154987
 20
1.786594
 11
10.165379
 21
1.732224
  0
LINE
  8
0
  6
CONTINUOUS
 10
10.509892
 20
1.713963
 11
10.466400
 21
1.674335
  0
LINE
  8
0
  6
CONTINUOUS
 10
10.466400
 20
1.674335
 11
10.407570
 21
1.675034
  0
LINE
  8
0
  6
CONTINUOUS
 10
10.407570
 20
1.675034
 11
10.359257
 21
1.737713
  0
LINE
  8
0
  6
CONTINUOUS
 10
10.359257
 20
1.737713
 11
10.356239
 21
1.865204
  0
LINE
  8
0
  6
CONTINUOUS
 10
10.356239
 20
1.865204
 11
10.376392
 21
1.914814
  0
LINE
  8
0
  6
CONTINUOUS
 10
10.376392
 20
1.914814
 11
10.424126
 21
1.946213
  0
LINE
  8
0
  6
CONTINUOUS
 10
10.424126
 20
1.946213
 11
10.492424
 21
1.926880
  0
LINE
  8
0
  6
CONTINUOUS
 10
10.492424
 20
1.926880
 11
10.522293
 21
1.865204
  0
LINE
  8
0
  6
CONTINUOUS
 10
10.522293
 20
1.865204
 11
10.519138
 21
1.737671
  0
LINE
  8
0
  6
CONTINUOUS
 10
10.519138
 20
1.737671
 11
10.509892
 21
1.713963
  0
LINE
  8
0
  6
CONTINUOUS
 10
9.345787
 20
1.607162
 11
9.366802
 21
1.554108
  0
LINE
  8
0
  6
CONTINUOUS
 10
9.366802
 20
1.554108
 11
9.556625
 21
1.554108
  0
LINE
  8
0
  6
CONTINUOUS
 10
9.556625
 20
1.554108
 11
9.543365
 21
1.594418
  0
LINE
  8
0
  6
CONTINUOUS
 10
9.333385
 20
1.695702
 11
9.258106
 21
1.655739
  0
LINE
  8
0
  6
CONTINUOUS
 10
9.258106
 20
1.655739
 11
9.199368
 21
1.673656
  0
LINE
  8
0
  6
CONTINUOUS
 10
9.199368
 20
1.673656
 11
9.189274
 21
1.713173
  0
LINE
  8
0
  6
CONTINUOUS
 10
9.189274
 20
1.713173
 11
9.249638
 21
1.750839
  0
LINE
  8
0
  6
CONTINUOUS
 10
9.249638
 20
1.750839
 11
9.347507
 21
1.785103
  0
LINE
  8
0
  6
CONTINUOUS
 10
9.347507
 20
1.785103
 11
9.333385
 21
1.695702
  0
LINE
  8
0
  6
CONTINUOUS
 10
8.130692
 20
1.695702
 11
8.056278
 21
1.655739
  0
LINE
  8
0
  6
CONTINUOUS
 10
8.056278
 20
1.655739
 11
7.996334
 21
1.673656
  0
LINE
  8
0
  6
CONTINUOUS
 10
7.996334
 20
1.673656
 11
7.986488
 21
1.713215
  0
LINE
  8
0
  6
CONTINUOUS
 10
7.986488
 20
1.713215
 11
8.047565
 21
1.750797
  0
LINE
  8
0
  6
CONTINUOUS
 10
8.047565
 20
1.750797
 11
8.144817
 21
1.785103
  0
LINE
  8
0
  6
CONTINUOUS
 10
8.144817
 20
1.785103
 11
8.130692
 21
1.695702
  0
LINE
  8
0
  6
CONTINUOUS
 10
8.142921
 20
1.607162
 11
8.164799
 21
1.554108
  0
LINE
  8
0
  6
CONTINUOUS
 10
8.164799
 20
1.554108
 11
8.353935
 21
1.554108
  0
LINE
  8
0
  6
CONTINUOUS
 10
8.353935
 20
1.554108
 11
8.341705
 21
1.594418
  0
LINE
  8
0
  6
CONTINUOUS
 10
7.378967
 20
1.554108
 11
7.162357
 21
1.554108
  0
LINE
  8
0
  6
CONTINUOUS
 10
7.162357
 20
1.554108
 11
7.162357
 21
2.270348
  0
LINE
  8
0
  6
CONTINUOUS
 10
7.162357
 20
2.270348
 11
7.557426
 21
2.269314
  0
LINE
  8
0
  6
CONTINUOUS
 10
7.557426
 20
2.269314
 11
7.682625
 21
2.226665
  0
LINE
  8
0
  6
CONTINUOUS
 10
7.682625
 20
2.226665
 11
7.768612
 21
2.126171
  0
LINE
  8
0
  6
CONTINUOUS
 10
7.768612
 20
2.126171
 11
7.790016
 21
2.059715
  0
LINE
  8
0
  6
CONTINUOUS
 10
7.790016
 20
2.059715
 11
7.791523
 21
1.989918
  0
LINE
  8
0
  6
CONTINUOUS
 10
7.791523
 20
1.989918
 11
7.731365
 21
1.858791
  0
LINE
  8
0
  6
CONTINUOUS
 10
7.731365
 20
1.858791
 11
7.607037
 21
1.785622
  0
LINE
  8
0
  6
CONTINUOUS
 10
7.607037
 20
1.785622
 11
7.378967
 21
1.775288
  0
LINE
  8
0
  6
CONTINUOUS
 10
7.378967
 20
1.943062
 11
7.541027
 21
1.952717
  0
LINE
  8
0
  6
CONTINUOUS
 10
7.541027
 20
1.952717
 11
7.578094
 21
2.004559
  0
LINE
  8
0
  6
CONTINUOUS
 10
7.578094
 20
2.004559
 11
7.554516
 21
2.079041
  0
LINE
  8
0
  6
CONTINUOUS
 10
7.554516
 20
2.079041
 11
7.506096
 21
2.097748
  0
LINE
  8
0
  6
CONTINUOUS
 10
7.506096
 20
2.097748
 11
7.378967
 21
2.097748
  0
LINE
  8
0
  6
CONTINUOUS
 10
8.341705
 20
1.594418
 11
8.322929
 21
1.957531
  0
LINE
  8
0
  6
CONTINUOUS
 10
8.322929
 20
1.957531
 11
8.298386
 21
2.007252
  0
LINE
  8
0
  6
CONTINUOUS
 10
8.298386
 20
2.007252
 11
8.225960
 21
2.057716
  0
LINE
  8
0
  6
CONTINUOUS
 10
8.225960
 20
2.057716
 11
8.087162
 21
2.079880
  0
LINE
  8
0
  6
CONTINUOUS
 10
8.087162
 20
2.079880
 11
7.922607
 21
2.054684
  0
LINE
  8
0
  6
CONTINUOUS
 10
7.922607
 20
2.054684
 11
7.866291
 21
2.014984
  0
LINE
  8
0
  6
CONTINUOUS
 10
7.866291
 20
2.014984
 11
7.826763
 21
1.928867
  0
LINE
  8
0
  6
CONTINUOUS
 10
7.826763
 20
1.928867
 11
7.830280
 21
1.892765
  0
LINE
  8
0
  6
CONTINUOUS
 10
7.830280
 20
1.892765
 11
8.001328
 21
1.888287
  0
LINE
  8
0
  6
CONTINUOUS
 10
8.001328
 20
1.888287
 11
8.018776
 21
1.939224
  0
LINE
  8
0
  6
CONTINUOUS
 10
8.018776
 20
1.939224
 11
8.072811
 21
1.958572
  0
LINE
  8
0
  6
CONTINUOUS
 10
8.072811
 20
1.958572
 11
8.126568
 21
1.940922
  0
LINE
  8
0
  6
CONTINUOUS
 10
8.126568
 20
1.940922
 11
8.134136
 21
1.893623
  0
LINE
  8
0
  6
CONTINUOUS
 10
8.134136
 20
1.893623
 11
7.871574
 21
1.815948
  0
LINE
  8
0
  6
CONTINUOUS
 10
7.871574
 20
1.815948
 11
7.817017
 21
1.759659
  0
LINE
  8
0
  6
CONTINUOUS
 10
7.817017
 20
1.759659
 11
7.805645
 21
1.657806
  0
LINE
  8
0
  6
CONTINUOUS
 10
7.805645
 20
1.657806
 11
7.841709
 21
1.589809
  0
LINE
  8
0
  6
CONTINUOUS
 10
7.841709
 20
1.589809
 11
7.906933
 21
1.548943
  0
LINE
  8
0
  6
CONTINUOUS
 10
7.906933
 20
1.548943
 11
7.992500
 21
1.538822
  0
LINE
  8
0
  6
CONTINUOUS
 10
7.992500
 20
1.538822
 11
8.112831
 21
1.578259
  0
LINE
  8
0
  6
CONTINUOUS
 10
8.112831
 20
1.578259
 11
8.142921
 21
1.607162
  0
LINE
  8
0
  6
CONTINUOUS
 10
8.594578
 20
2.011967
 11
8.673645
 21
2.063641
  0
LINE
  8
0
  6
CONTINUOUS
 10
8.673645
 20
2.063641
 11
8.748207
 21
2.083397
  0
LINE
  8
0
  6
CONTINUOUS
 10
8.748207
 20
2.083397
 11
8.824883
 21
2.075012
  0
LINE
  8
0
  6
CONTINUOUS
 10
8.824883
 20
2.075012
 11
8.895515
 21
2.033279
  0
LINE
  8
0
  6
CONTINUOUS
 10
8.895515
 20
2.033279
 11
8.948025
 21
1.924519
  0
LINE
  8
0
  6
CONTINUOUS
 10
8.948025
 20
1.924519
 11
8.950977
 21
1.554108
  0
LINE
  8
0
  6
CONTINUOUS
 10
8.950977
 20
1.554108
 11
8.747368
 21
1.554108
  0
LINE
  8
0
  6
CONTINUOUS
 10
8.747368
 20
1.554108
 11
8.743237
 21
1.878983
  0
LINE
  8
0
  6
CONTINUOUS
 10
8.743237
 20
1.878983
 11
8.711197
 21
1.915848
  0
LINE
  8
0
  6
CONTINUOUS
 10
8.711197
 20
1.915848
 11
8.656586
 21
1.917305
  0
LINE
  8
0
  6
CONTINUOUS
 10
8.656586
 20
1.917305
 11
8.604717
 21
1.862667
  0
LINE
  8
0
  6
CONTINUOUS
 10
8.604717
 20
1.862667
 11
8.601643
 21
1.554108
  0
LINE
  8
0
  6
CONTINUOUS
 10
8.601643
 20
1.554108
 11
8.405613
 21
1.554108
  0
LINE
  8
0
  6
CONTINUOUS
 10
8.405613
 20
1.554108
 11
8.405613
 21
2.066055
  0
LINE
  8
0
  6
CONTINUOUS
 10
8.405613
 20
2.066055
 11
8.590271
 21
2.066055
  0
LINE
  8
0
  6
CONTINUOUS
 10
8.590271
 20
2.066055
 11
8.594578
 21
2.011967
  0
LINE
  8
0
  6
CONTINUOUS
 10
9.543365
 20
1.594418
 11
9.524933
 21
1.957531
  0
LINE
  8
0
  6
CONTINUOUS
 10
9.524933
 20
1.957531
 11
9.500465
 21
2.007061
  0
LINE
  8
0
  6
CONTINUOUS
 10
9.500465
 20
2.007061
 11
9.428062
 21
2.057793
  0
LINE
  8
0
  6
CONTINUOUS
 10
9.428062
 20
2.057793
 11
9.289249
 21
2.079899
  0
LINE
  8
0
  6
CONTINUOUS
 10
9.289249
 20
2.079899
 11
9.124611
 21
2.054684
  0
LINE
  8
0
  6
CONTINUOUS
 10
9.124611
 20
2.054684
 11
9.068359
 21
2.014866
  0
LINE
  8
0
  6
CONTINUOUS
 10
9.068359
 20
2.014866
 11
9.028515
 21
1.928879
  0
LINE
  8
0
  6
CONTINUOUS
 10
9.028515
 20
1.928879
 11
9.031590
 21
1.892765
  0
LINE
  8
0
  6
CONTINUOUS
 10
9.031590
 20
1.892765
 11
9.204193
 21
1.888287
  0
LINE
  8
0
  6
CONTINUOUS
 10
9.204193
 20
1.888287
 11
9.221149
 21
1.939049
  0
LINE
  8
0
  6
CONTINUOUS
 10
9.221149
 20
1.939049
 11
9.274899
 21
1.958622
  0
LINE
  8
0
  6
CONTINUOUS
 10
9.274899
 20
1.958622
 11
9.329174
 21
1.940945
  0
LINE
  8
0
  6
CONTINUOUS
 10
9.329174
 20
1.940945
 11
9.336830
 21
1.893623
  0
LINE
  8
0
  6
CONTINUOUS
 10
9.336830
 20
1.893623
 11
9.073841
 21
1.815777
  0
LINE
  8
0
  6
CONTINUOUS
 10
9.073841
 20
1.815777
 11
9.018909
 21
1.759804
  0
LINE
  8
0
  6
CONTINUOUS
 10
9.018909
 20
1.759804
 11
9.007477
 21
1.657806
  0
LINE
  8
0
  6
CONTINUOUS
 10
9.007477
 20
1.657806
 11
9.043476
 21
1.589855
  0
LINE
  8
0
  6
CONTINUOUS
 10
9.043476
 20
1.589855
 11
9.108589
 21
1.548943
  0
LINE
  8
0
  6
CONTINUOUS
 10
9.108589
 20
1.548943
 11
9.194069
 21
1.538887
  0
LINE
  8
0
  6
CONTINUOUS
 10
9.194069
 20
1.538887
 11
9.315075
 21
1.578079
  0
LINE
  8
0
  6
CONTINUOUS
 10
9.315075
 20
1.578079
 11
9.345787
 21
1.607162
  0
LINE
  8
0
  6
CONTINUOUS
 10
9.854973
 20
1.742558
 11
9.909748
 21
1.723042
  0
LINE
  8
0
  6
CONTINUOUS
 10
9.909748
 20
1.723042
 11
9.907513
 21
1.672623
  0
LINE
  8
0
  6
CONTINUOUS
 10
9.907513
 20
1.672623
 11
9.847679
 21
1.654144
  0
LINE
  8
0
  6
CONTINUOUS
 10
9.847679
 20
1.654144
 11
9.789639
 21
1.684715
  0
LINE
  8
0
  6
CONTINUOUS
 10
9.789639
 20
1.684715
 11
9.779011
 21
1.726021
  0
LINE
  8
0
  6
CONTINUOUS
 10
9.779011
 20
1.726021
 11
9.592113
 21
1.726021
  0
LINE
  8
0
  6
CONTINUOUS
 10
9.592113
 20
1.726021
 11
9.617683
 21
1.632717
  0
LINE
  8
0
  6
CONTINUOUS
 10
9.617683
 20
1.632717
 11
9.682190
 21
1.574581
  0
LINE
  8
0
  6
CONTINUOUS
 10
9.682190
 20
1.574581
 11
9.828426
 21
1.537842
  0
LINE
  8
0
  6
CONTINUOUS
 10
9.828426
 20
1.537842
 11
9.977341
 21
1.553841
  0
LINE
  8
0
  6
CONTINUOUS
 10
9.977341
 20
1.553841
 11
10.055481
 21
1.596485
  0
LINE
  8
0
  6
CONTINUOUS
 10
10.055481
 20
1.596485
 11
10.105656
 21
1.674274
  0
LINE
  8
0
  6
CONTINUOUS
 10
10.105656
 20
1.674274
 11
10.105091
 21
1.766846
  0
LINE
  8
0
  6
CONTINUOUS
 10
10.105091
 20
1.766846
 11
10.066158
 21
1.825584
  0
LINE
  8
0
  6
CONTINUOUS
 10
10.066158
 20
1.825584
 11
9.962116
 21
1.877090
  0
LINE
  8
0
  6
CONTINUOUS
 10
9.962116
 20
1.877090
 11
9.789131
 21
1.925354
  0
LINE
  8
0
  6
CONTINUOUS
 10
9.789131
 20
1.925354
 11
9.802105
 21
1.958466
  0
LINE
  8
0
  6
CONTINUOUS
 10
9.802105
 20
1.958466
 11
9.879436
 21
1.965111
  0
LINE
  8
0
  6
CONTINUOUS
 10
9.879436
 20
1.965111
 11
9.911648
 21
1.918430
  0
LINE
  8
0
  6
CONTINUOUS
 10
9.911648
 20
1.918430
 11
10.091309
 21
1.918430
  0
LINE
  8
0
  6
CONTINUOUS
 10
10.091309
 20
1.918430
 11
10.065845
 21
2.007671
  0
LINE
  8
0
  6
CONTINUOUS
 10
10.065845
 20
2.007671
 11
9.970604
 21
2.067478
  0
LINE
  8
0
  6
CONTINUOUS
 10
9.970604
 20
2.067478
 11
9.778320
 21
2.076969
  0
LINE
  8
0
  6
CONTINUOUS
 10
9.778320
 20
2.076969
 11
9.652920
 21
2.027122
  0
LINE
  8
0
  6
CONTINUOUS
 10
9.652920
 20
2.027122
 11
9.600079
 21
1.940941
  0
LINE
  8
0
  6
CONTINUOUS
 10
9.600079
 20
1.940941
 11
9.607445
 21
1.859001
  0
LINE
  8
0
  6
CONTINUOUS
 10
9.607445
 20
1.859001
 11
9.639027
 21
1.811653
  0
LINE
  8
0
  6
CONTINUOUS
 10
9.639027
 20
1.811653
 11
9.741802
 21
1.763916
  0
LINE
  8
0
  6
CONTINUOUS
 10
9.741802
 20
1.763916
 11
9.854973
 21
1.742558
  0
LINE
  8
0
  6
CONTINUOUS
 10
10.165379
 20
1.732224
 11
10.201015
 21
1.654865
  0
LINE
  8
0
  6
CONTINUOUS
 10
10.201015
 20
1.654865
 11
10.306980
 21
1.563728
  0
LINE
  8
0
  6
CONTINUOUS
 10
10.306980
 20
1.563728
 11
10.439266
 21
1.537575
  0
LINE
  8
0
  6
CONTINUOUS
 10
10.439266
 20
1.537575
 11
10.571419
 21
1.564007
  0
LINE
  8
0
  6
CONTINUOUS
 10
10.571419
 20
1.564007
 11
10.618755
 21
1.593212
  0
LINE
  8
0
  6
CONTINUOUS
 10
10.966026
 20
2.011967
 11
11.045609
 21
2.063641
  0
LINE
  8
0
  6
CONTINUOUS
 10
11.045609
 20
2.063641
 11
11.119804
 21
2.083599
  0
LINE
  8
0
  6
CONTINUOUS
 10
11.119804
 20
2.083599
 11
11.196159
 21
2.075012
  0
LINE
  8
0
  6
CONTINUOUS
 10
11.196159
 20
2.075012
 11
11.266659
 21
2.033482
  0
LINE
  8
0
  6
CONTINUOUS
 10
11.266659
 20
2.033482
 11
11.318512
 21
1.924530
  0
LINE
  8
0
  6
CONTINUOUS
 10
11.318512
 20
1.924530
 11
11.321388
 21
1.554108
  0
LINE
  8
0
  6
CONTINUOUS
 10
11.321388
 20
1.554108
 11
11.118645
 21
1.554108
  0
LINE
  8
0
  6
CONTINUOUS
 10
11.118645
 20
1.554108
 11
11.114853
 21
1.878983
  0
LINE
  8
0
  6
CONTINUOUS
 10
11.114853
 20
1.878983
 11
11.081436
 21
1.915848
  0
LINE
  8
0
  6
CONTINUOUS
 10
11.081436
 20
1.915848
 11
11.027718
 21
1.917343
  0
LINE
  8
0
  6
CONTINUOUS
 10
11.027718
 20
1.917343
 11
10.977028
 21
1.862667
  0
LINE
  8
0
  6
CONTINUOUS
 10
10.977028
 20
1.862667
 11
10.973949
 21
1.554108
  0
LINE
  8
0
  6
CONTINUOUS
 10
10.973949
 20
1.554108
 11
10.777748
 21
1.554108
  0
LINE
  8
0
  6
CONTINUOUS
 10
10.777748
 20
1.554108
 11
10.777748
 21
2.066055
  0
LINE
  8
0
  6
CONTINUOUS
 10
10.777748
 20
2.066055
 11
10.961720
 21
2.066055
  0
LINE
  8
0
  6
CONTINUOUS
 10
10.961720
 20
2.066055
 11
10.966026
 21
2.011967
  0
LINE
  8
0
  6
CONTINUOUS
 10
11.388741
 20
2.135300
 11
11.388741
 21
2.270348
  0
LINE
  8
0
  6
CONTINUOUS
 10
11.388741
 20
2.270348
 11
11.579601
 21
2.270348
  0
LINE
  8
0
  6
CONTINUOUS
 10
11.579601
 20
2.270348
 11
11.579601
 21
2.135300
  0
LINE
  8
0
  6
CONTINUOUS
 10
11.579601
 20
2.135300
 11
11.388741
 21
2.135300
  0
LINE
  8
0
  6
CONTINUOUS
 10
11.579601
 20
1.554108
 11
11.579601
 21
2.066055
  0
LINE
  8
0
  6
CONTINUOUS
 10
11.579601
 20
2.066055
 11
11.388741
 21
2.066055
  0
LINE
  8
0
  6
CONTINUOUS
 10
11.388741
 20
2.066055
 11
11.388741
 21
1.554108
  0
LINE
  8
0
  6
CONTINUOUS
 10
11.388741
 20
1.554108
 11
11.579601
 21
1.554108
  0
LINE
  8
0
  6
CONTINUOUS
 10
12.118587
 20
1.620945
 11
12.056297
 21
1.572140
  0
LINE
  8
0
  6
CONTINUOUS
 10
12.056297
 20
1.572140
 11
11.928364
 21
1.537624
  0
LINE
  8
0
  6
CONTINUOUS
 10
11.928364
 20
1.537624
 11
11.805374
 21
1.555882
  0
LINE
  8
0
  6
CONTINUOUS
 10
11.805374
 20
1.555882
 11
11.700325
 21
1.630470
  0
LINE
  8
0
  6
CONTINUOUS
 10
11.700325
 20
1.630470
 11
11.635757
 21
1.762367
  0
LINE
  8
0
  6
CONTINUOUS
 10
11.635757
 20
1.762367
 11
11.641785
 21
1.886562
  0
LINE
  8
0
  6
CONTINUOUS
 10
11.641785
 20
1.886562
 11
11.714428
 21
2.006657
  0
LINE
  8
0
  6
CONTINUOUS
 10
11.714428
 20
2.006657
 11
11.838329
 21
2.072598
  0
LINE
  8
0
  6
CONTINUOUS
 10
11.838329
 20
2.072598
 11
12.000591
 21
2.068638
  0
LINE
  8
0
  6
CONTINUOUS
 10
12.000591
 20
2.068638
 11
12.099812
 21
2.013344
  0
LINE
  8
0
  6
CONTINUOUS
 10
12.099812
 20
2.013344
 11
12.159149
 21
1.915386
  0
LINE
  8
0
  6
CONTINUOUS
 10
12.159149
 20
1.915386
 11
12.162514
 21
1.872437
  0
LINE
  8
0
  6
CONTINUOUS
 10
12.162514
 20
1.872437
 11
11.988190
 21
1.872437
  0
LINE
  8
0
  6
CONTINUOUS
 10
11.988190
 20
1.872437
 11
11.954082
 21
1.929283
  0
LINE
  8
0
  6
CONTINUOUS
 10
11.954082
 20
1.929283
 11
11.913345
 21
1.943836
  0
LINE
  8
0
  6
CONTINUOUS
 10
11.913345
 20
1.943836
 11
11.849037
 21
1.913216
  0
LINE
  8
0
  6
CONTINUOUS
 10
11.849037
 20
1.913216
 11
11.823467
 21
1.816551
  0
LINE
  8
0
  6
CONTINUOUS
 10
11.823467
 20
1.816551
 11
11.844738
 21
1.718819
  0
LINE
  8
0
  6
CONTINUOUS
 10
11.844738
 20
1.718819
 11
11.893375
 21
1.678524
  0
LINE
  8
0
  6
CONTINUOUS
 10
11.893375
 20
1.678524
 11
11.947903
 21
1.682552
  0
LINE
  8
0
  6
CONTINUOUS
 10
11.947903
 20
1.682552
 11
11.983887
 21
1.734634
  0
LINE
  8
0
  6
CONTINUOUS
 10
11.983887
 20
1.734634
 11
11.987503
 21
1.765984
  0
LINE
  8
0
  6
CONTINUOUS
 10
11.987503
 20
1.765984
 11
12.171299
 21
1.765984
  0
LINE
  8
0
  6
CONTINUOUS
 10
12.171299
 20
1.765984
 11
12.160229
 21
1.687908
  0
LINE
  8
0
  6
CONTINUOUS
 10
12.160229
 20
1.687908
 11
12.118587
 21
1.620945
  0
TEXT
  8
0
 10
-17.503105
 20
-36.090832
 40
3.000000
  1
20A　250Ｖ
 41
0.992000
  0
TEXT
  8
0
 10
22.785568
 20
-40.525089
 40
2.000000
  1
WK3911
 41
1.059000
  0
TEXT
  8
0
 10
-28.635586
 20
35.250000
 40
3.000000
  1
15A・20A兼用接地コンセント（露出用）（200V用）
 41
0.729000
  0
TEXT
  8
0
 10
-28.647011
 20
38.750000
 40
3.000000
  1
EV・PHEV充電用
 41
0.706000
  0
TEXT
  8
0
 10
25.540901
 20
-4.029388
 40
2.540000
  1
80
 50
90.000000
 41
1.050000
  0
LINE
  8
0
  6
CONTINUOUS
 10
26.425903
 20
-10.529140
 11
26.175903
 21
-12.029140
  0
LINE
  8
0
  6
CONTINUOUS
 10
26.175903
 20
-12.029140
 11
25.925896
 21
-10.529140
  0
LINE
  8
0
  6
CONTINUOUS
 10
26.175903
 20
-12.029140
 11
26.175903
 21
-10.529140
  0
LINE
  8
0
  6
CONTINUOUS
 10
25.925896
 20
6.470860
 11
26.175903
 21
7.970860
  0
LINE
  8
0
  6
CONTINUOUS
 10
26.175903
 20
7.970860
 11
26.425903
 21
6.470860
  0
LINE
  8
0
  6
CONTINUOUS
 10
26.175903
 20
7.970860
 11
26.175903
 21
6.470860
  0
TEXT
  8
0
 10
7.666576
 20
12.793598
 40
2.540000
  1
80
 41
1.050000
  0
LINE
  8
0
  6
CONTINUOUS
 10
18.166828
 20
12.408596
 11
19.666828
 21
12.158596
  0
LINE
  8
0
  6
CONTINUOUS
 10
19.666828
 20
12.158596
 11
18.166828
 21
11.908596
  0
LINE
  8
0
  6
CONTINUOUS
 10
19.666828
 20
12.158596
 11
18.166828
 21
12.158596
  0
LINE
  8
0
  6
CONTINUOUS
 10
1.166828
 20
11.908596
 11
-0.333172
 21
12.158596
  0
LINE
  8
0
  6
CONTINUOUS
 10
-0.333172
 20
12.158596
 11
1.166828
 21
12.408596
  0
LINE
  8
0
  6
CONTINUOUS
 10
-0.333172
 20
12.158596
 11
1.166828
 21
12.158596
  0
TEXT
  8
0
 10
-19.012173
 20
17.448315
 40
2.540000
  1
（53.3）
 41
1.050000
  0
LINE
  8
0
  6
CONTINUOUS
 10
-6.558571
 20
17.063313
 11
-5.058571
 21
16.813313
  0
LINE
  8
0
  6
CONTINUOUS
 10
-5.058571
 20
16.813313
 11
-6.558571
 21
16.563313
  0
LINE
  8
0
  6
CONTINUOUS
 10
-5.058571
 20
16.813313
 11
-6.558571
 21
16.813313
  0
LINE
  8
0
  6
CONTINUOUS
 10
-16.886175
 20
16.563313
 11
-18.386175
 21
16.813313
  0
LINE
  8
0
  6
CONTINUOUS
 10
-18.386175
 20
16.813313
 11
-16.886175
 21
17.063313
  0
LINE
  8
0
  6
CONTINUOUS
 10
-18.386175
 20
16.813313
 11
-16.886175
 21
16.813313
  0
TEXT
  8
0
 10
-32.630447
 20
12.793598
 40
2.540000
  1
33.35
 41
1.150000
  0
LINE
  8
0
  6
CONTINUOUS
 10
-8.548676
 20
11.908596
 11
-10.048676
 21
12.158596
  0
LINE
  8
0
  6
CONTINUOUS
 10
-10.048676
 20
12.158596
 11
-8.548676
 21
12.408596
  0
LINE
  8
0
  6
CONTINUOUS
 10
-10.048676
 20
12.158596
 11
-8.548676
 21
12.158596
  0
LINE
  8
0
  6
CONTINUOUS
 10
-19.886175
 20
12.408596
 11
-18.386175
 21
12.158596
  0
LINE
  8
0
  6
CONTINUOUS
 10
-18.386175
 20
12.158596
 11
-19.886175
 21
11.908596
  0
LINE
  8
0
  6
CONTINUOUS
 10
-18.386175
 20
12.158596
 11
-19.886175
 21
12.158596
  0
ENDSEC
  0
EOF
