  0
SECTION
  2
HEADER
  9
$ACADVER
  1
AC1009
  9
$INSBASE
 10
0.0
 20
0.0
 30
0.0
  9
$EXTMIN
 10
-40.003967069792537
 20
-42.50335672113971
 30
-0.0015258207003583
  9
$EXTMAX
 10
40.003967488887668
 20
42.503357140234797
 30
0.0000000349246037
  9
$LIMMIN
 10
0.0
 20
0.0
  9
$LIMMAX
 10
12.0
 20
9.0
  9
$ORTHOMODE
 70
     0
  9
$REGENMODE
 70
     1
  9
$FILLMODE
 70
     1
  9
$QTEXTMODE
 70
     0
  9
$MIRRTEXT
 70
     0
  9
$DRAGMODE
 70
     2
  9
$LTSCALE
 40
1.0
  9
$OSMODE
 70
   229
  9
$ATTMODE
 70
     1
  9
$TEXTSIZE
 40
2.0
  9
$TRACEWID
 40
0.05
  9
$TEXTSTYLE
  7
STANDARD
  9
$CLAYER
  8
0
  9
$CELTYPE
  6
CONTINUOUS
  9
$CECOLOR
 62
   256
  9
$DIMSCALE
 40
1.0
  9
$DIMASZ
 40
0.18
  9
$DIMEXO
 40
0.0625
  9
$DIMDLI
 40
0.38
  9
$DIMRND
 40
0.0
  9
$DIMDLE
 40
0.0
  9
$DIMEXE
 40
0.18
  9
$DIMTP
 40
0.0
  9
$DIMTM
 40
0.0
  9
$DIMTXT
 40
0.18
  9
$DIMCEN
 40
0.09
  9
$DIMTSZ
 40
0.0
  9
$DIMTOL
 70
     0
  9
$DIMLIM
 70
     0
  9
$DIMTIH
 70
     1
  9
$DIMTOH
 70
     1
  9
$DIMSE1
 70
     0
  9
$DIMSE2
 70
     0
  9
$DIMTAD
 70
     0
  9
$DIMZIN
 70
     0
  9
$DIMBLK
  1

  9
$DIMASO
 70
     1
  9
$DIMSHO
 70
     1
  9
$DIMPOST
  1

  9
$DIMAPOST
  1

  9
$DIMALT
 70
     0
  9
$DIMALTD
 70
     2
  9
$DIMALTF
 40
25.399999999999999
  9
$DIMLFAC
 40
1.0
  9
$DIMTOFL
 70
     0
  9
$DIMTVP
 40
0.0
  9
$DIMTIX
 70
     0
  9
$DIMSOXD
 70
     0
  9
$DIMSAH
 70
     0
  9
$DIMBLK1
  1

  9
$DIMBLK2
  1

  9
$DIMSTYLE
  2
STANDARD
  9
$DIMCLRD
 70
     0
  9
$DIMCLRE
 70
     0
  9
$DIMCLRT
 70
     0
  9
$DIMTFAC
 40
1.0
  9
$DIMGAP
 40
0.09
  9
$LUNITS
 70
     2
  9
$LUPREC
 70
     4
  9
$SKETCHINC
 40
0.1
  9
$FILLETRAD
 40
0.0
  9
$AUNITS
 70
     0
  9
$AUPREC
 70
     0
  9
$MENU
  1
.
  9
$ELEVATION
 40
0.0
  9
$PELEVATION
 40
0.0
  9
$THICKNESS
 40
0.0
  9
$LIMCHECK
 70
     0
  9
$BLIPMODE
 70
     0
  9
$CHAMFERA
 40
0.0
  9
$CHAMFERB
 40
0.0
  9
$SKPOLY
 70
     0
  9
$TDCREATE
 40
2455369.6907309722
  9
$TDUPDATE
 40
2455369.6907537621
  9
$TDINDWG
 40
0.000022963
  9
$TDUSRTIMER
 40
0.000022963
  9
$USRTIMER
 70
     1
  9
$ANGBASE
 50
0.0
  9
$ANGDIR
 70
     0
  9
$PDMODE
 70
     0
  9
$PDSIZE
 40
0.0
  9
$PLINEWID
 40
0.0
  9
$COORDS
 70
     0
  9
$SPLFRAME
 70
     0
  9
$SPLINETYPE
 70
     6
  9
$SPLINESEGS
 70
     8
  9
$ATTDIA
 70
     0
  9
$ATTREQ
 70
     1
  9
$HANDLING
 70
     1
  9
$HANDSEED
  5
33A
  9
$SURFTAB1
 70
     6
  9
$SURFTAB2
 70
     6
  9
$SURFTYPE
 70
     6
  9
$SURFU
 70
     6
  9
$SURFV
 70
     6
  9
$UCSNAME
  2

  9
$UCSORG
 10
0.0
 20
0.0
 30
0.0
  9
$UCSXDIR
 10
1.0
 20
0.0
 30
0.0
  9
$UCSYDIR
 10
0.0
 20
1.0
 30
0.0
  9
$PUCSNAME
  2

  9
$PUCSORG
 10
0.0
 20
0.0
 30
0.0
  9
$PUCSXDIR
 10
1.0
 20
0.0
 30
0.0
  9
$PUCSYDIR
 10
0.0
 20
1.0
 30
0.0
  9
$USERI1
 70
     0
  9
$USERI2
 70
     0
  9
$USERI3
 70
     0
  9
$USERI4
 70
     0
  9
$USERI5
 70
     0
  9
$USERR1
 40
0.0
  9
$USERR2
 40
0.0
  9
$USERR3
 40
0.0
  9
$USERR4
 40
0.0
  9
$USERR5
 40
0.0
  9
$WORLDVIEW
 70
     1
  9
$SHADEDGE
 70
     3
  9
$SHADEDIF
 70
    70
  9
$TILEMODE
 70
     1
  9
$MAXACTVP
 70
    64
  9
$PLIMCHECK
 70
     0
  9
$PEXTMIN
 10
1.0000000000000000E+020
 20
1.0000000000000000E+020
 30
1.0000000000000000E+020
  9
$PEXTMAX
 10
-1.0000000000000000E+020
 20
-1.0000000000000000E+020
 30
-1.0000000000000000E+020
  9
$PLIMMIN
 10
0.0
 20
0.0
  9
$PLIMMAX
 10
12.0
 20
9.0
  9
$UNITMODE
 70
     0
  9
$VISRETAIN
 70
     1
  9
$PLINEGEN
 70
     0
  9
$PSLTSCALE
 70
     1
  0
ENDSEC
  0
SECTION
  2
TABLES
  0
TABLE
  2
VPORT
 70
     1
  0
VPORT
  2
*ACTIVE
 70
     0
 10
0.0
 20
0.0
 11
1.0
 21
1.0
 12
0.0000002095475615
 22
0.0000002095475509
 13
0.0
 23
0.0
 14
1.0
 24
1.0
 15
0.0
 25
0.0
 16
0.0
 26
0.0
 36
1.0
 17
0.0
 27
0.0
 37
0.0
 40
85.536901265915304
 41
1.5785639958376689
 42
50.0
 43
0.0
 44
0.0
 50
0.0
 51
0.0
 71
     0
 72
   100
 73
     1
 74
     1
 75
     0
 76
     0
 77
     0
 78
     0
  0
ENDTAB
  0
TABLE
  2
LTYPE
 70
     5
  0
LTYPE
  2
CONTINUOUS
 70
     0
  3
実線
 72
    65
 73
     0
 40
0.0
  0
LTYPE
  2
HIDDEN
 70
     0
  3
_ _ _ _ _ _ _ _ _ _ _ _ _ _ _ _ _ _ _ _ _ _ _
 72
    65
 73
     2
 40
0.375
 49
0.25
 49
-0.125
  0
LTYPE
  2
CENTER
 70
     0
  3
____ _ ____ _ ____ _ ____ _ ____ _ ____ _ ____
 72
    65
 73
     4
 40
2.0
 49
1.25
 49
-0.25
 49
0.25
 49
-0.25
  0
LTYPE
  2
PHANTOM
 70
     0
  3
_____ _ _ _____ _ _ _____ _ _ _____ _ _ ____
 72
    65
 73
     6
 40
2.5
 49
1.25
 49
-0.25
 49
0.25
 49
-0.25
 49
0.25
 49
-0.25
  0
LTYPE
  2
DASHED
 70
     0
  3
__ __ __ __ __ __ __ __ __ __ __ __ __ __ __
 72
    65
 73
     2
 40
0.75
 49
0.5
 49
-0.25
  0
ENDTAB
  0
TABLE
  2
LAYER
 70
     1
  0
LAYER
  2
0
 70
     0
 62
     7
  6
CONTINUOUS
  0
ENDTAB
  0
TABLE
  2
STYLE
 70
     2
  0
STYLE
  2
STANDARD
 70
     0
 40
2.0
 41
1.0
 50
0.0
 71
     0
 42
2.0
  3
txt
  4
bigfont
  0
STYLE
  2
ANNOTATIVE
 70
     0
 40
0.0
 41
1.0
 50
0.0
 71
     0
 42
0.2
  3
txt
  4

  0
ENDTAB
  0
TABLE
  2
VIEW
 70
     0
  0
ENDTAB
  0
TABLE
  2
UCS
 70
     0
  0
ENDTAB
  0
TABLE
  2
APPID
 70
     3
  0
APPID
  2
ACAD
 70
     0
  0
APPID
  2
ACADANNOTATIVE
 70
     0
  0
APPID
  2
ACAD_MLEADERVER
 70
     0
  0
ENDTAB
  0
TABLE
  2
DIMSTYLE
 70
     2
  0
DIMSTYLE
  2
STANDARD
 70
     0
  3

  4

  5

  6

  7

 40
1.0
 41
0.18
 42
0.0625
 43
0.38
 44
0.18
 45
0.0
 46
0.0
 47
0.0
 48
0.0
140
0.18
141
0.09
142
0.0
143
25.399999999999999
144
1.0
145
0.0
146
1.0
147
0.09
 71
     0
 72
     0
 73
     1
 74
     1
 75
     0
 76
     0
 77
     0
 78
     0
170
     0
171
     2
172
     0
173
     0
174
     0
175
     0
176
     0
177
     0
178
     0
  0
DIMSTYLE
  2
ANNOTATIVE
 70
     0
  3

  4

  5

  6

  7

 40
1.0
 41
0.18
 42
0.0625
 43
0.38
 44
0.18
 45
0.0
 46
0.0
 47
0.0
 48
0.0
140
0.18
141
0.09
142
0.0
143
25.399999999999999
144
1.0
145
0.0
146
1.0
147
0.09
 71
     0
 72
     0
 73
     1
 74
     1
 75
     0
 76
     0
 77
     0
 78
     0
170
     0
171
     2
172
     0
173
     0
174
     0
175
     0
176
     0
177
     0
178
     0
  0
ENDTAB
  0
ENDSEC
  0
SECTION
  2
BLOCKS
  0
BLOCK
  8
0
  2
$MODEL_SPACE
 70
     0
 10
0.0
 20
0.0
 30
0.0
  3
$MODEL_SPACE
  1

  0
ENDBLK
  5
78
  8
0
  0
BLOCK
 67
     1
  8
0
  2
$PAPER_SPACE
 70
     0
 10
0.0
 20
0.0
 30
0.0
  3
$PAPER_SPACE
  1

  0
ENDBLK
  5
74
 67
     1
  8
0
  0
ENDSEC
  0
SECTION
  2
ENTITIES
  0
LINE
  5
81
  8
0
  6
CONTINUOUS
 10
-4.2759359999999988
 20
-6.7729990000000004
 30
0.0
 11
-4.326236999999999
 21
-4.4226989999999988
 31
0.0
  0
LINE
  5
82
  8
0
  6
CONTINUOUS
 10
-4.326236999999999
 20
-4.4226989999999988
 30
0.0
 11
-4.3420329999999989
 21
-4.1095959999999989
 31
0.0
  0
LINE
  5
83
  8
0
  6
CONTINUOUS
 10
-4.5083349999999989
 20
-3.4604989999999991
 30
0.0
 11
-4.3983349999999994
 21
-3.7287979999999998
 31
0.0
  0
LINE
  5
84
  8
0
  6
CONTINUOUS
 10
-4.3983349999999994
 20
-3.7287979999999998
 30
0.0
 11
-4.341736
 21
-4.1156959999999989
 31
0.0
  0
LINE
  5
85
  8
0
  6
CONTINUOUS
 10
-4.5151370000000002
 20
-3.4489969999999999
 30
0.0
 11
-4.7342339999999989
 21
-3.1696970000000002
 31
0.0
  0
LINE
  5
86
  8
0
  6
CONTINUOUS
 10
-4.7342339999999989
 20
-3.1696970000000002
 30
0.0
 11
-4.7473339999999986
 21
-3.1561970000000001
 31
0.0
  0
LINE
  5
87
  8
0
  6
CONTINUOUS
 10
-21.170738
 20
-3.4604989999999991
 30
0.0
 11
-21.280632000000001
 21
-3.7287979999999998
 31
0.0
  0
LINE
  5
88
  8
0
  6
CONTINUOUS
 10
-21.280632000000001
 20
-3.7287979999999998
 30
0.0
 11
-21.336936999999999
 21
-4.1095959999999989
 31
0.0
  0
LINE
  5
89
  8
0
  6
CONTINUOUS
 10
-21.336936999999999
 20
-4.1095959999999989
 30
0.0
 11
-21.396034
 21
-6.0938989999999986
 31
0.0
  0
LINE
  5
8A
  8
0
  6
CONTINUOUS
 10
-21.396034
 20
-6.0938989999999986
 30
0.0
 11
-21.403037999999999
 21
-6.7729990000000004
 31
0.0
  0
LINE
  5
8B
  8
0
  6
CONTINUOUS
 10
-20.931633000000001
 20
-3.1561970000000001
 30
0.0
 11
-21.156433
 21
-3.4368970000000001
 31
0.0
  0
LINE
  5
8C
  8
0
  6
CONTINUOUS
 10
-21.156433
 20
-3.4368970000000001
 30
0.0
 11
-21.163834000000001
 21
-3.4489969999999999
 31
0.0
  0
LINE
  5
8D
  8
0
  6
CONTINUOUS
 10
7.3860659999999996
 20
9.9594020000000008
 30
0.0
 11
7.0068659999999996
 21
9.8734020000000005
 31
0.0
  0
LINE
  5
8E
  8
0
  6
CONTINUOUS
 10
7.4576640000000003
 20
-1.9281959999999989
 30
0.0
 11
7.4348640000000001
 21
-1.857796
 31
0.0
  0
LINE
  5
8F
  8
0
  6
CONTINUOUS
 10
7.5276639999999988
 20
-1.9613989999999999
 30
0.0
 11
7.4576640000000003
 21
-1.9281959999999989
 31
0.0
  0
LINE
  5
90
  8
0
  6
CONTINUOUS
 10
6.8476639999999991
 20
9.8738019999999995
 30
0.0
 11
7.3636669999999986
 21
9.981503
 31
0.0
  0
LINE
  5
91
  8
0
  6
CONTINUOUS
 10
7.3636669999999986
 20
9.981503
 30
0.0
 11
7.419166999999999
 21
9.8831019999999992
 31
0.0
  0
LINE
  5
92
  8
0
  6
CONTINUOUS
 10
7.419166999999999
 20
9.8831019999999992
 30
0.0
 11
7.4348640000000001
 21
9.7526019999999995
 31
0.0
  0
LINE
  5
93
  8
0
  6
CONTINUOUS
 10
5.5824660000000002
 20
-1.8021969999999989
 30
0.0
 11
5.774464
 21
-1.545798999999999
 31
0.0
  0
LINE
  5
94
  8
0
  6
CONTINUOUS
 10
7.4320639999999987
 20
9.7398030000000002
 30
0.0
 11
7.3983649999999992
 21
9.9072019999999998
 31
0.0
  0
LINE
  5
95
  8
0
  6
CONTINUOUS
 10
7.3983649999999992
 20
9.9072019999999998
 30
0.0
 11
7.3507649999999991
 21
9.9383029999999994
 31
0.0
  0
LINE
  5
96
  8
0
  6
CONTINUOUS
 10
7.3507649999999991
 20
9.9383029999999994
 30
0.0
 11
6.8856659999999996
 21
9.8318019999999997
 31
0.0
  0
LINE
  5
97
  8
0
  6
CONTINUOUS
 10
6.8856659999999996
 20
-1.703395999999999
 30
0.0
 11
7.4320639999999987
 21
-1.843399
 31
0.0
  0
LINE
  5
98
  8
0
  6
CONTINUOUS
 10
-11.099532999999999
 20
-11.618198
 30
0.0
 11
-11.043835
 21
-11.582996
 31
0.0
  0
LINE
  5
99
  8
0
  6
CONTINUOUS
 10
-11.043835
 20
-11.582996
 30
0.0
 11
-11.039536
 21
-11.562199
 31
0.0
  0
LINE
  5
9A
  8
0
  6
CONTINUOUS
 10
-14.639533999999999
 20
-11.562199
 30
0.0
 11
-14.602432
 21
-11.613899
 31
0.0
  0
LINE
  5
9B
  8
0
  6
CONTINUOUS
 10
-14.602432
 20
-11.613899
 30
0.0
 11
-14.579535999999999
 21
-11.618198
 31
0.0
  0
LINE
  5
9C
  8
0
  6
CONTINUOUS
 10
-4.7759359999999988
 20
-6.7765959999999996
 30
0.0
 11
-4.8255349999999986
 21
-4.449698999999999
 31
0.0
  0
LINE
  5
9D
  8
0
  6
CONTINUOUS
 10
-4.8255349999999986
 20
-4.449698999999999
 30
0.0
 11
-4.8412360000000003
 21
-4.1387980000000004
 31
0.0
  0
LINE
  5
9E
  8
0
  6
CONTINUOUS
 10
-4.9417339999999994
 20
-3.709797
 30
0.0
 11
-4.866935999999999
 21
-3.9213979999999999
 31
0.0
  0
LINE
  5
9F
  8
0
  6
CONTINUOUS
 10
-4.866935999999999
 20
-3.9213979999999999
 30
0.0
 11
-4.8412360000000003
 21
-4.1389959999999988
 31
0.0
  0
LINE
  5
A0
  8
0
  6
CONTINUOUS
 10
-4.9417339999999994
 20
-3.709797
 30
0.0
 11
-5.1275370000000002
 21
-3.4833980000000002
 31
0.0
  0
LINE
  5
A1
  8
0
  6
CONTINUOUS
 10
-21.337135
 20
11.518202
 30
0.0
 11
-21.269531000000001
 21
11.378202
 31
0.0
  0
LINE
  5
A2
  8
0
  6
CONTINUOUS
 10
-21.269531000000001
 20
11.378202
 30
0.0
 11
-21.076035000000001
 21
11.205803
 31
0.0
  0
LINE
  5
A3
  8
0
  6
CONTINUOUS
 10
-21.076035000000001
 20
11.205803
 30
0.0
 11
-20.764037999999999
 21
11.038702000000001
 31
0.0
  0
LINE
  5
A4
  8
0
  6
CONTINUOUS
 10
-20.764037999999999
 20
11.038702000000001
 30
0.0
 11
-20.239837999999999
 21
10.848402
 31
0.0
  0
LINE
  5
A5
  8
0
  6
CONTINUOUS
 10
-20.239837999999999
 20
10.848402
 30
0.0
 11
-19.435531999999998
 21
10.645502
 31
0.0
  0
LINE
  5
A6
  8
0
  6
CONTINUOUS
 10
-19.435531999999998
 20
10.645502
 30
0.0
 11
-18.290634000000001
 21
10.445803
 31
0.0
  0
LINE
  5
A7
  8
0
  6
CONTINUOUS
 10
-18.290634000000001
 20
10.445803
 30
0.0
 11
-16.945335
 21
10.287402999999999
 31
0.0
  0
LINE
  5
A8
  8
0
  6
CONTINUOUS
 10
-16.945335
 20
10.287402999999999
 30
0.0
 11
-15.254333000000001
 21
10.165602
 31
0.0
  0
LINE
  5
A9
  8
0
  6
CONTINUOUS
 10
-15.254333000000001
 20
10.165602
 30
0.0
 11
-13.451134
 21
10.109102
 31
0.0
  0
LINE
  5
AA
  8
0
  6
CONTINUOUS
 10
-13.451134
 20
10.109102
 30
0.0
 11
-11.619434
 21
10.120502
 31
0.0
  0
LINE
  5
AB
  8
0
  6
CONTINUOUS
 10
-11.619434
 20
10.120502
 30
0.0
 11
-9.8445359999999997
 21
10.199202
 31
0.0
  0
LINE
  5
AC
  8
0
  6
CONTINUOUS
 10
-9.8445359999999997
 20
10.199202
 30
0.0
 11
-8.208736
 21
10.341502999999999
 31
0.0
  0
LINE
  5
AD
  8
0
  6
CONTINUOUS
 10
-8.208736
 20
10.341502999999999
 30
0.0
 11
-6.9331360000000002
 21
10.516203000000001
 31
0.0
  0
LINE
  5
AE
  8
0
  6
CONTINUOUS
 10
-6.9331360000000002
 20
10.516203000000001
 30
0.0
 11
-5.9936329999999991
 21
10.701103
 31
0.0
  0
LINE
  5
AF
  8
0
  6
CONTINUOUS
 10
-5.9936329999999991
 20
10.701103
 30
0.0
 11
-5.2468339999999989
 21
10.910401999999999
 31
0.0
  0
LINE
  5
B0
  8
0
  6
CONTINUOUS
 10
-5.2468339999999989
 20
10.910401999999999
 30
0.0
 11
-4.7762339999999988
 21
11.104702
 31
0.0
  0
LINE
  5
B1
  8
0
  6
CONTINUOUS
 10
-4.7762339999999988
 20
11.104702
 30
0.0
 11
-4.5111349999999986
 21
11.274302
 31
0.0
  0
LINE
  5
B2
  8
0
  6
CONTINUOUS
 10
-4.5111349999999986
 20
11.274302
 30
0.0
 11
-4.3852349999999989
 21
11.413103
 31
0.0
  0
LINE
  5
B3
  8
0
  6
CONTINUOUS
 10
-4.3852349999999989
 20
11.413103
 30
0.0
 11
-4.3418349999999988
 21
11.518202
 31
0.0
  0
LINE
  5
B4
  8
0
  6
CONTINUOUS
 10
-11.105236
 20
-11.299397000000001
 30
0.0
 11
-11.099532999999999
 21
-11.275397999999999
 31
0.0
  0
LINE
  5
B5
  8
0
  6
CONTINUOUS
 10
-14.573836999999999
 20
-11.299397000000001
 30
0.0
 11
-14.519531000000001
 21
-11.334599000000001
 31
0.0
  0
LINE
  5
B6
  8
0
  6
CONTINUOUS
 10
-14.579535999999999
 20
-11.275397999999999
 30
0.0
 11
-14.573631000000001
 21
-11.299697999999999
 31
0.0
  0
LINE
  5
B7
  8
0
  6
CONTINUOUS
 10
-11.159836
 20
-11.334599000000001
 30
0.0
 11
-11.105133
 21
-11.299397000000001
 31
0.0
  0
LINE
  5
B8
  8
0
  6
CONTINUOUS
 10
-8.9515339999999988
 20
-9.7977980000000002
 30
0.0
 11
-8.8702349999999992
 21
-9.8303989999999999
 31
0.0
  0
LINE
  5
B9
  8
0
  6
CONTINUOUS
 10
-8.8702349999999992
 20
-9.8303989999999999
 30
0.0
 11
-8.8444369999999992
 21
-9.9259989999999991
 31
0.0
  0
LINE
  5
BA
  8
0
  6
CONTINUOUS
 10
-8.8444369999999992
 20
-9.9259989999999991
 30
0.0
 11
-8.8849330000000002
 21
-10.006095999999999
 31
0.0
  0
LINE
  5
BB
  8
0
  6
CONTINUOUS
 10
-8.8849330000000002
 20
-10.006095999999999
 30
0.0
 11
-8.9515339999999988
 21
-10.025397999999999
 31
0.0
  0
LINE
  5
BC
  8
0
  6
CONTINUOUS
 10
-8.7299350000000011
 20
-9.8525960000000001
 30
0.0
 11
-8.744434
 21
-9.9147990000000004
 31
0.0
  0
LINE
  5
BD
  8
0
  6
CONTINUOUS
 10
-8.744434
 20
-9.9147990000000004
 30
0.0
 11
-8.592433999999999
 21
-10.054995999999999
 31
0.0
  0
LINE
  5
BE
  8
0
  6
CONTINUOUS
 10
-8.592433999999999
 20
-10.054995999999999
 30
0.0
 11
-8.6045339999999992
 21
-10.149196999999999
 31
0.0
  0
LINE
  5
BF
  8
0
  6
CONTINUOUS
 10
-8.6045339999999992
 20
-10.149196999999999
 30
0.0
 11
-8.6778339999999972
 21
-10.192898
 31
0.0
  0
LINE
  5
C0
  8
0
  6
CONTINUOUS
 10
-8.6778339999999972
 20
-10.192898
 30
0.0
 11
-8.7691350000000003
 21
-10.171497
 31
0.0
  0
LINE
  5
C1
  8
0
  6
CONTINUOUS
 10
-8.7691350000000003
 20
-10.171497
 30
0.0
 11
-8.8051339999999971
 21
-10.090598999999999
 31
0.0
  0
LINE
  5
C2
  8
0
  6
CONTINUOUS
 10
-8.7583350000000006
 20
-10.088596000000001
 30
0.0
 11
-8.7290340000000004
 21
-10.147297
 31
0.0
  0
LINE
  5
C3
  8
0
  6
CONTINUOUS
 10
-8.7290340000000004
 20
-10.147297
 30
0.0
 11
-8.6546359999999982
 21
-10.139296999999999
 31
0.0
  0
LINE
  5
C4
  8
0
  6
CONTINUOUS
 10
-8.6546359999999982
 20
-10.139296999999999
 30
0.0
 11
-8.6374359999999992
 21
-10.072098
 31
0.0
  0
LINE
  5
C5
  8
0
  6
CONTINUOUS
 10
-8.6374359999999992
 20
-10.072098
 30
0.0
 11
-8.7866359999999997
 21
-9.9335979999999982
 31
0.0
  0
LINE
  5
C6
  8
0
  6
CONTINUOUS
 10
-8.7866359999999997
 20
-9.9335979999999982
 30
0.0
 11
-8.7796359999999982
 21
-9.8468970000000002
 31
0.0
  0
LINE
  5
C7
  8
0
  6
CONTINUOUS
 10
-8.7796359999999982
 20
-9.8468970000000002
 30
0.0
 11
-8.7042350000000006
 21
-9.7981990000000003
 31
0.0
  0
LINE
  5
C8
  8
0
  6
CONTINUOUS
 10
-8.7042350000000006
 20
-9.7981990000000003
 30
0.0
 11
-8.6237339999999971
 21
-9.8248979999999992
 31
0.0
  0
LINE
  5
C9
  8
0
  6
CONTINUOUS
 10
-8.6237339999999971
 20
-9.8248979999999992
 30
0.0
 11
-8.5979350000000014
 21
-9.9073979999999988
 31
0.0
  0
LINE
  5
CA
  8
0
  6
CONTINUOUS
 10
-8.6447330000000004
 20
-9.9073979999999988
 30
0.0
 11
-8.669537
 21
-9.8453979999999994
 31
0.0
  0
LINE
  5
CB
  8
0
  6
CONTINUOUS
 10
-8.669537
 20
-9.8453979999999994
 30
0.0
 11
-8.7289349999999981
 21
-9.8516960000000005
 31
0.0
  0
LINE
  5
CC
  8
0
  6
CONTINUOUS
 10
-8.7289349999999981
 20
-9.8516960000000005
 30
0.0
 11
-8.7299350000000011
 21
-9.8525960000000001
 31
0.0
  0
LINE
  5
CD
  8
0
  6
CONTINUOUS
 10
-8.9071350000000002
 20
-9.8565979999999982
 30
0.0
 11
-8.9639360000000003
 21
-9.8361970000000003
 31
0.0
  0
LINE
  5
CE
  8
0
  6
CONTINUOUS
 10
-8.9639360000000003
 20
-9.9869960000000013
 30
0.0
 11
-8.898833999999999
 21
-9.9557990000000007
 31
0.0
  0
LINE
  5
CF
  8
0
  6
CONTINUOUS
 10
-8.898833999999999
 20
-9.9557990000000007
 30
0.0
 11
-8.8985369999999993
 21
-9.8680990000000008
 31
0.0
  0
LINE
  5
D0
  8
0
  6
CONTINUOUS
 10
-8.8985369999999993
 20
-9.8680990000000008
 30
0.0
 11
-8.9071350000000002
 21
-9.8565979999999982
 31
0.0
  0
LINE
  5
D1
  8
0
  6
CONTINUOUS
 10
-7.806735999999999
 20
-10.325798000000001
 30
0.0
 11
-7.8779339999999989
 21
-10.354198
 31
0.0
  0
LINE
  5
D2
  8
0
  6
CONTINUOUS
 10
-7.7759359999999988
 20
-10.224197
 30
0.0
 11
-7.805435000000001
 21
-10.324496999999999
 31
0.0
  0
LINE
  5
D3
  8
0
  6
CONTINUOUS
 10
-7.805435000000001
 20
-10.324496999999999
 30
0.0
 11
-7.806735999999999
 21
-10.325798000000001
 31
0.0
  0
LINE
  5
D4
  8
0
  6
CONTINUOUS
 10
-7.8779339999999989
 20
-10.354198
 30
0.0
 11
-7.9542349999999997
 21
-10.317596
 31
0.0
  0
LINE
  5
D5
  8
0
  6
CONTINUOUS
 10
-7.9542349999999997
 20
-10.317596
 30
0.0
 11
-7.9787330000000001
 21
-10.224197
 31
0.0
  0
LINE
  5
D6
  8
0
  6
CONTINUOUS
 10
-7.9307369999999988
 20
-10.234196000000001
 30
0.0
 11
-7.9051359999999988
 21
-10.304897
 31
0.0
  0
LINE
  5
D7
  8
0
  6
CONTINUOUS
 10
-7.9051359999999988
 20
-10.304897
 30
0.0
 11
-7.8412360000000003
 21
-10.297596
 31
0.0
  0
LINE
  5
D8
  8
0
  6
CONTINUOUS
 10
-7.8412360000000003
 20
-10.297596
 30
0.0
 11
-7.8243330000000002
 21
-10.226196
 31
0.0
  0
LINE
  5
D9
  8
0
  6
CONTINUOUS
 10
-20.989532000000001
 20
-12.393096999999999
 30
0.0
 11
-20.954338
 21
-12.452896000000001
 31
0.0
  0
LINE
  5
DA
  8
0
  6
CONTINUOUS
 10
-20.954338
 20
-12.452896000000001
 30
0.0
 11
-20.930237000000002
 21
-12.458397
 31
0.0
  0
LINE
  5
DB
  8
0
  6
CONTINUOUS
 10
-4.7487339999999989
 20
-12.458397
 30
0.0
 11
-4.6951330000000002
 21
-12.421097
 31
0.0
  0
LINE
  5
DC
  8
0
  6
CONTINUOUS
 10
-4.6951330000000002
 20
-12.421097
 30
0.0
 11
-4.6894339999999994
 21
-12.392998
 31
0.0
  0
LINE
  5
DD
  8
0
  6
CONTINUOUS
 10
-20.858931999999999
 20
-4.5768969999999989
 30
0.0
 11
-20.846336000000001
 21
-4.5781970000000003
 31
0.0
  0
LINE
  5
DE
  8
0
  6
CONTINUOUS
 10
-4.8327330000000002
 20
-4.5782970000000001
 30
0.0
 11
-4.820335
 21
-4.5768969999999989
 31
0.0
  0
LINE
  5
DF
  8
0
  6
CONTINUOUS
 10
-4.2379340000000001
 20
-12.458599
 30
0.0
 11
-4.1624339999999993
 21
-12.419898999999999
 31
0.0
  0
LINE
  5
E0
  8
0
  6
CONTINUOUS
 10
-4.1624339999999993
 20
-12.419898999999999
 30
0.0
 11
-4.1394349999999989
 21
-12.349796
 31
0.0
  0
LINE
  5
E1
  8
0
  6
CONTINUOUS
 10
-21.539535999999998
 20
-12.349796
 30
0.0
 11
-21.502533
 21
-12.434898
 31
0.0
  0
LINE
  5
E2
  8
0
  6
CONTINUOUS
 10
-21.502533
 20
-12.434898
 30
0.0
 11
-21.440735
 21
-12.458599
 31
0.0
  0
LINE
  5
E3
  8
0
  6
CONTINUOUS
 10
-4.7493359999999996
 20
-10.547897000000001
 30
0.0
 11
-4.7299350000000002
 21
-11.253197
 31
0.0
  0
LINE
  5
E4
  8
0
  6
CONTINUOUS
 10
-20.949332999999999
 20
-11.253799000000001
 30
0.0
 11
-20.929832000000001
 21
-10.546497
 31
0.0
  0
LINE
  5
E5
  8
0
  6
CONTINUOUS
 10
-4.1393360000000001
 20
12.539802999999999
 30
0.0
 11
-4.1770360000000002
 21
12.658102
 31
0.0
  0
LINE
  5
E6
  8
0
  6
CONTINUOUS
 10
-4.1770360000000002
 20
12.658102
 30
0.0
 11
-4.2758330000000004
 21
12.731503
 31
0.0
  0
LINE
  5
E7
  8
0
  6
CONTINUOUS
 10
-4.2758330000000004
 20
12.731503
 30
0.0
 11
-4.3383330000000004
 21
12.741702999999999
 31
0.0
  0
LINE
  5
E8
  8
0
  6
CONTINUOUS
 10
-21.340537999999999
 20
12.741702999999999
 30
0.0
 11
-21.457236999999999
 21
12.703402000000001
 31
0.0
  0
LINE
  5
E9
  8
0
  6
CONTINUOUS
 10
-21.457236999999999
 20
12.703402000000001
 30
0.0
 11
-21.529533000000001
 21
12.603203000000001
 31
0.0
  0
LINE
  5
EA
  8
0
  6
CONTINUOUS
 10
-21.529533000000001
 20
12.603203000000001
 30
0.0
 11
-21.539535999999998
 21
12.539802999999999
 31
0.0
  0
LINE
  5
EB
  8
0
  6
CONTINUOUS
 10
-4.8411330000000001
 20
-4.1389959999999988
 30
0.0
 11
-4.8922349999999986
 21
-3.8207970000000002
 31
0.0
  0
LINE
  5
EC
  8
0
  6
CONTINUOUS
 10
-4.8922349999999986
 20
-3.8207970000000002
 30
0.0
 11
-4.9419360000000001
 21
-3.709797
 31
0.0
  0
LINE
  5
ED
  8
0
  6
CONTINUOUS
 10
-4.7758330000000004
 20
-6.7761990000000001
 30
0.0
 11
-4.8254359999999989
 21
-4.4505959999999991
 31
0.0
  0
LINE
  5
EE
  8
0
  6
CONTINUOUS
 10
-4.8254359999999989
 20
-4.4505959999999991
 30
0.0
 11
-4.8411330000000001
 21
-4.1396980000000001
 31
0.0
  0
LINE
  5
EF
  8
0
  6
CONTINUOUS
 10
-20.737335000000002
 20
-3.709797
 30
0.0
 11
-20.812035000000002
 21
-3.9213979999999999
 31
0.0
  0
LINE
  5
F0
  8
0
  6
CONTINUOUS
 10
-20.812035000000002
 20
-3.9213979999999999
 30
0.0
 11
-20.855537000000002
 21
-4.4989970000000001
 31
0.0
  0
LINE
  5
F1
  8
0
  6
CONTINUOUS
 10
-20.855537000000002
 20
-4.4989970000000001
 30
0.0
 11
-20.903037999999999
 21
-6.7765959999999996
 31
0.0
  0
LINE
  5
F2
  8
0
  6
CONTINUOUS
 10
-15.879531999999999
 20
9.7470020000000002
 30
0.0
 11
-15.837135
 21
9.8773020000000002
 31
0.0
  0
LINE
  5
F3
  8
0
  6
CONTINUOUS
 10
-15.837135
 20
9.8773020000000002
 30
0.0
 11
-15.731735
 21
9.9629019999999997
 31
0.0
  0
LINE
  5
F4
  8
0
  6
CONTINUOUS
 10
-15.731735
 20
9.9629019999999997
 30
0.0
 11
-15.621131999999999
 21
9.9806020000000011
 31
0.0
  0
LINE
  5
F5
  8
0
  6
CONTINUOUS
 10
-10.057933999999999
 20
9.9806020000000011
 30
0.0
 11
-9.9254339999999992
 21
9.9526020000000006
 31
0.0
  0
LINE
  5
F6
  8
0
  6
CONTINUOUS
 10
-9.9254339999999992
 20
9.9526020000000006
 30
0.0
 11
-9.8282360000000004
 21
9.8550029999999982
 31
0.0
  0
LINE
  5
F7
  8
0
  6
CONTINUOUS
 10
-9.8282360000000004
 20
9.8550029999999982
 30
0.0
 11
-9.7995339999999995
 21
9.7470020000000002
 31
0.0
  0
LINE
  5
F8
  8
0
  6
CONTINUOUS
 10
-4.9417339999999994
 20
-3.709797
 30
0.0
 11
-5.1275370000000002
 21
-3.4833980000000002
 31
0.0
  0
LINE
  5
F9
  8
0
  6
CONTINUOUS
 10
-20.551437
 20
-3.4833980000000002
 30
0.0
 11
-20.737335000000002
 21
-3.709797
 31
0.0
  0
LINE
  5
FA
  8
0
  6
CONTINUOUS
 10
-15.690735
 20
9.9862020000000005
 30
0.0
 11
-14.000938
 21
9.8919029999999992
 31
0.0
  0
LINE
  5
FB
  8
0
  6
CONTINUOUS
 10
-14.000938
 20
9.8919029999999992
 30
0.0
 11
-12.329636000000001
 21
9.8766020000000001
 31
0.0
  0
LINE
  5
FC
  8
0
  6
CONTINUOUS
 10
-12.329636000000001
 20
9.8766020000000001
 30
0.0
 11
-10.617435
 21
9.9415019999999998
 31
0.0
  0
LINE
  5
FD
  8
0
  6
CONTINUOUS
 10
-10.617435
 20
9.9415019999999998
 30
0.0
 11
-9.9883350000000011
 21
9.9862020000000005
 31
0.0
  0
LINE
  5
FE
  8
0
  6
CONTINUOUS
 10
-15.951537999999999
 20
9.7526019999999995
 30
0.0
 11
-15.913239000000001
 21
9.8811020000000003
 31
0.0
  0
LINE
  5
FF
  8
0
  6
CONTINUOUS
 10
-15.913239000000001
 20
9.8811020000000003
 30
0.0
 11
-15.808135999999999
 21
9.9678020000000007
 31
0.0
  0
LINE
  5
100
  8
0
  6
CONTINUOUS
 10
-15.808135999999999
 20
9.9678020000000007
 30
0.0
 11
-15.690735
 21
9.9862020000000005
 31
0.0
  0
LINE
  5
101
  8
0
  6
CONTINUOUS
 10
-9.9883350000000011
 20
9.9862020000000005
 30
0.0
 11
-9.8500370000000004
 21
9.9579029999999982
 31
0.0
  0
LINE
  5
102
  8
0
  6
CONTINUOUS
 10
-9.8500370000000004
 20
9.9579029999999982
 30
0.0
 11
-9.7552339999999997
 21
9.8632030000000004
 31
0.0
  0
LINE
  5
103
  8
0
  6
CONTINUOUS
 10
-9.7552339999999997
 20
9.8632030000000004
 30
0.0
 11
-9.7275350000000014
 21
9.7526019999999995
 31
0.0
  0
LINE
  5
104
  8
0
  6
CONTINUOUS
 10
-10.048336000000001
 20
-6.0849989999999989
 30
0.0
 11
-10.185734
 21
-6.201797
 31
0.0
  0
LINE
  5
105
  8
0
  6
CONTINUOUS
 10
-10.185734
 20
-6.201797
 30
0.0
 11
-10.350636
 21
-6.2452959999999988
 31
0.0
  0
LINE
  5
106
  8
0
  6
CONTINUOUS
 10
-10.350636
 20
-6.2452959999999988
 30
0.0
 11
-10.359135
 21
-6.245398999999999
 31
0.0
  0
LINE
  5
107
  8
0
  6
CONTINUOUS
 10
-15.319939
 20
-6.245398999999999
 30
0.0
 11
-15.484238
 21
-6.2063980000000001
 31
0.0
  0
LINE
  5
108
  8
0
  6
CONTINUOUS
 10
-15.484238
 20
-6.2063980000000001
 30
0.0
 11
-15.626037999999999
 21
-6.0909959999999987
 31
0.0
  0
LINE
  5
109
  8
0
  6
CONTINUOUS
 10
-15.626037999999999
 20
-6.0909959999999987
 30
0.0
 11
-15.834732000000001
 21
-5.8311960000000003
 31
0.0
  0
LINE
  5
10A
  8
0
  6
CONTINUOUS
 10
-16.239432999999998
 20
-5.296695999999999
 30
0.0
 11
-16.109138000000002
 21
-5.5028990000000002
 31
0.0
  0
LINE
  5
10B
  8
0
  6
CONTINUOUS
 10
-16.109138000000002
 20
-5.5028990000000002
 30
0.0
 11
-16.077538000000001
 21
-5.5415989999999988
 31
0.0
  0
LINE
  5
10C
  8
0
  6
CONTINUOUS
 10
-9.8443339999999981
 20
-5.8311960000000003
 30
0.0
 11
-10.048336000000001
 21
-6.0849989999999989
 31
0.0
  0
LINE
  5
10D
  8
0
  6
CONTINUOUS
 10
-9.6015359999999994
 20
-5.5415989999999988
 30
0.0
 11
-9.4405359999999998
 21
-5.3035959999999989
 31
0.0
  0
LINE
  5
10E
  8
0
  6
CONTINUOUS
 10
-9.4405359999999998
 20
-5.3035959999999989
 30
0.0
 11
-9.4395330000000008
 21
-5.296695999999999
 31
0.0
  0
LINE
  5
10F
  8
0
  6
CONTINUOUS
 10
-16.073433000000001
 20
-4.8721959999999989
 30
0.0
 11
-16.224335
 21
-4.9332960000000003
 31
0.0
  0
LINE
  5
110
  8
0
  6
CONTINUOUS
 10
-16.224335
 20
-4.9332960000000003
 30
0.0
 11
-16.239532000000001
 21
-4.9644969999999988
 31
0.0
  0
LINE
  5
111
  8
0
  6
CONTINUOUS
 10
-15.006538000000001
 20
-4.6404990000000002
 30
0.0
 11
-14.855034
 21
-4.5794980000000001
 31
0.0
  0
LINE
  5
112
  8
0
  6
CONTINUOUS
 10
-14.855034
 20
-4.5794980000000001
 30
0.0
 11
-14.839432
 21
-4.5483969999999996
 31
0.0
  0
LINE
  5
113
  8
0
  6
CONTINUOUS
 10
-14.839539
 20
-3.0289990000000002
 30
0.0
 11
-14.796837
 21
-2.9656980000000002
 31
0.0
  0
LINE
  5
114
  8
0
  6
CONTINUOUS
 10
-14.796837
 20
-2.9656980000000002
 30
0.0
 11
-14.618736
 21
-2.913799
 31
0.0
  0
LINE
  5
115
  8
0
  6
CONTINUOUS
 10
-11.060333
 20
-2.913799
 30
0.0
 11
-12.087536
 21
-2.8240970000000001
 31
0.0
  0
LINE
  5
116
  8
0
  6
CONTINUOUS
 10
-12.087536
 20
-2.8240970000000001
 30
0.0
 11
-13.190932999999999
 21
-2.8095970000000001
 31
0.0
  0
LINE
  5
117
  8
0
  6
CONTINUOUS
 10
-13.190932999999999
 20
-2.8095970000000001
 30
0.0
 11
-14.246634999999999
 21
-2.8718989999999991
 31
0.0
  0
LINE
  5
118
  8
0
  6
CONTINUOUS
 10
-14.246634999999999
 20
-2.8718989999999991
 30
0.0
 11
-14.618736
 21
-2.913799
 31
0.0
  0
LINE
  5
119
  8
0
  6
CONTINUOUS
 10
-11.060333
 20
-2.913799
 30
0.0
 11
-10.879936000000001
 21
-2.9669989999999991
 31
0.0
  0
LINE
  5
11A
  8
0
  6
CONTINUOUS
 10
-10.879936000000001
 20
-2.9669989999999991
 30
0.0
 11
-10.839535
 21
-3.0289990000000002
 31
0.0
  0
LINE
  5
11B
  8
0
  6
CONTINUOUS
 10
-10.839535
 20
-4.5481989999999994
 30
0.0
 11
-10.789436
 21
-4.6028979999999997
 31
0.0
  0
LINE
  5
11C
  8
0
  6
CONTINUOUS
 10
-10.789436
 20
-4.6028979999999997
 30
0.0
 11
-10.672337000000001
 21
-4.6404990000000002
 31
0.0
  0
LINE
  5
11D
  8
0
  6
CONTINUOUS
 10
-9.4394340000000003
 20
-4.9645960000000002
 30
0.0
 11
-9.4890369999999997
 21
-4.9098969999999991
 31
0.0
  0
LINE
  5
11E
  8
0
  6
CONTINUOUS
 10
-9.4890369999999997
 20
-4.9098969999999991
 30
0.0
 11
-9.6057360000000003
 21
-4.8720970000000001
 31
0.0
  0
LINE
  5
11F
  8
0
  6
CONTINUOUS
 10
-14.226334
 20
-1.545798999999999
 30
0.0
 11
-13.591331
 21
-1.671195999999999
 31
0.0
  0
LINE
  5
120
  8
0
  6
CONTINUOUS
 10
-13.591331
 20
-1.671195999999999
 30
0.0
 11
-12.933536999999999
 21
-1.720699
 31
0.0
  0
LINE
  5
121
  8
0
  6
CONTINUOUS
 10
-12.933536999999999
 20
-1.720699
 30
0.0
 11
-12.270232999999999
 21
-1.692699
 31
0.0
  0
LINE
  5
122
  8
0
  6
CONTINUOUS
 10
-12.270232999999999
 20
-1.692699
 30
0.0
 11
-11.627235000000001
 21
-1.5883979999999991
 31
0.0
  0
LINE
  5
123
  8
0
  6
CONTINUOUS
 10
-11.627235000000001
 20
-1.5883979999999991
 30
0.0
 11
-11.452736
 21
-1.545798999999999
 31
0.0
  0
LINE
  5
124
  8
0
  6
CONTINUOUS
 10
-14.226334
 20
-1.545798999999999
 30
0.0
 11
-13.694138000000001
 21
-1.708099
 31
0.0
  0
LINE
  5
125
  8
0
  6
CONTINUOUS
 10
-13.694138000000001
 20
-1.708099
 30
0.0
 11
-13.156036
 21
-1.7912980000000001
 31
0.0
  0
LINE
  5
126
  8
0
  6
CONTINUOUS
 10
-13.156036
 20
-1.7912980000000001
 30
0.0
 11
-12.599735000000001
 21
-1.796897999999999
 31
0.0
  0
LINE
  5
127
  8
0
  6
CONTINUOUS
 10
-12.599735000000001
 20
-1.796897999999999
 30
0.0
 11
-12.054233999999999
 21
-1.7232970000000001
 31
0.0
  0
LINE
  5
128
  8
0
  6
CONTINUOUS
 10
-12.054233999999999
 20
-1.7232970000000001
 30
0.0
 11
-11.519234000000001
 21
-1.570895999999999
 31
0.0
  0
LINE
  5
129
  8
0
  6
CONTINUOUS
 10
-11.519234000000001
 20
-1.570895999999999
 30
0.0
 11
-11.452736
 21
-1.545798999999999
 31
0.0
  0
LINE
  5
12A
  8
0
  6
CONTINUOUS
 10
-12.739535999999999
 20
2.0966009999999988
 30
0.0
 11
-12.591835
 21
2.0575030000000001
 31
0.0
  0
LINE
  5
12B
  8
0
  6
CONTINUOUS
 10
-12.591835
 20
2.0575030000000001
 30
0.0
 11
-12.482334
 21
1.9510019999999999
 31
0.0
  0
LINE
  5
12C
  8
0
  6
CONTINUOUS
 10
-12.482334
 20
1.9510019999999999
 30
0.0
 11
-12.450336
 21
1.8766020000000001
 31
0.0
  0
LINE
  5
12D
  8
0
  6
CONTINUOUS
 10
-13.305939
 20
1.1966019999999991
 30
0.0
 11
-13.418037
 21
1.0916019999999991
 31
0.0
  0
LINE
  5
12E
  8
0
  6
CONTINUOUS
 10
-13.418037
 20
1.0916019999999991
 30
0.0
 11
-13.567634999999999
 21
1.0565029999999991
 31
0.0
  0
LINE
  5
12F
  8
0
  6
CONTINUOUS
 10
-13.567634999999999
 20
1.0565029999999991
 30
0.0
 11
-13.712738
 21
1.098700999999999
 31
0.0
  0
LINE
  5
130
  8
0
  6
CONTINUOUS
 10
-13.712738
 20
1.098700999999999
 30
0.0
 11
-13.813133000000001
 21
1.1966019999999991
 31
0.0
  0
LINE
  5
131
  8
0
  6
CONTINUOUS
 10
-12.450336
 20
1.7166019999999991
 30
0.0
 11
-12.527233000000001
 21
1.5845029999999991
 31
0.0
  0
LINE
  5
132
  8
0
  6
CONTINUOUS
 10
-12.527233000000001
 20
1.5845029999999991
 30
0.0
 11
-12.659233
 21
1.5073030000000001
 31
0.0
  0
LINE
  5
133
  8
0
  6
CONTINUOUS
 10
-12.659233
 20
1.5073030000000001
 30
0.0
 11
-12.739535999999999
 21
1.4966029999999999
 31
0.0
  0
LINE
  5
134
  8
0
  6
CONTINUOUS
 10
-12.327133
 20
2.0766029999999991
 30
0.0
 11
-12.567936
 21
2.1943019999999991
 31
0.0
  0
LINE
  5
135
  8
0
  6
CONTINUOUS
 10
-12.567936
 20
2.1943019999999991
 30
0.0
 11
-12.826534000000001
 21
2.236202
 31
0.0
  0
LINE
  5
136
  8
0
  6
CONTINUOUS
 10
-12.826534000000001
 20
2.236202
 30
0.0
 11
-13.089233
 21
2.2009029999999989
 31
0.0
  0
LINE
  5
137
  8
0
  6
CONTINUOUS
 10
-13.089233
 20
2.2009029999999989
 30
0.0
 11
-13.330337999999999
 21
2.090701999999999
 31
0.0
  0
LINE
  5
138
  8
0
  6
CONTINUOUS
 10
-13.330337999999999
 20
2.090701999999999
 30
0.0
 11
-13.526733
 21
1.9174020000000001
 31
0.0
  0
LINE
  5
139
  8
0
  6
CONTINUOUS
 10
-13.526733
 20
1.9174020000000001
 30
0.0
 11
-13.624733000000001
 21
1.7762029999999991
 31
0.0
  0
LINE
  5
13A
  8
0
  6
CONTINUOUS
 10
-10.055134000000001
 20
9.9390029999999996
 30
0.0
 11
-11.725834000000001
 21
9.8486019999999996
 31
0.0
  0
LINE
  5
13B
  8
0
  6
CONTINUOUS
 10
-11.725834000000001
 20
9.8486019999999996
 30
0.0
 11
-13.398933
 21
9.8356019999999997
 31
0.0
  0
LINE
  5
13C
  8
0
  6
CONTINUOUS
 10
-13.398933
 20
9.8356019999999997
 30
0.0
 11
-15.081139
 21
9.9009020000000003
 31
0.0
  0
LINE
  5
13D
  8
0
  6
CONTINUOUS
 10
-15.081139
 20
9.9009020000000003
 30
0.0
 11
-15.623932
 21
9.9390029999999996
 31
0.0
  0
LINE
  5
13E
  8
0
  6
CONTINUOUS
 10
-13.721138
 20
1.9250029999999989
 30
0.0
 11
-13.530334
 21
2.1407029999999989
 31
0.0
  0
LINE
  5
13F
  8
0
  6
CONTINUOUS
 10
-13.530334
 20
2.1407029999999989
 30
0.0
 11
-13.282532
 21
2.299602999999999
 31
0.0
  0
LINE
  5
140
  8
0
  6
CONTINUOUS
 10
-13.282532
 20
2.299602999999999
 30
0.0
 11
-13.007034000000001
 21
2.3830029999999991
 31
0.0
  0
LINE
  5
141
  8
0
  6
CONTINUOUS
 10
-13.007034000000001
 20
2.3830029999999991
 30
0.0
 11
-12.722534
 21
2.3897020000000002
 31
0.0
  0
LINE
  5
142
  8
0
  6
CONTINUOUS
 10
-12.722534
 20
2.3897020000000002
 30
0.0
 11
-12.443436
 21
2.3195019999999991
 31
0.0
  0
LINE
  5
143
  8
0
  6
CONTINUOUS
 10
-12.443436
 20
2.3195019999999991
 30
0.0
 11
-12.193535000000001
 21
2.1766030000000001
 31
0.0
  0
LINE
  5
144
  8
0
  6
CONTINUOUS
 10
-12.193535000000001
 20
2.1766030000000001
 30
0.0
 11
-12.080734
 21
2.0766029999999991
 31
0.0
  0
LINE
  5
145
  8
0
  6
CONTINUOUS
 10
-11.865936
 20
1.1966019999999991
 30
0.0
 11
-11.977036
 21
1.0925029999999989
 31
0.0
  0
LINE
  5
146
  8
0
  6
CONTINUOUS
 10
-11.977036
 20
1.0925029999999989
 30
0.0
 11
-12.125133999999999
 21
1.0564020000000001
 31
0.0
  0
LINE
  5
147
  8
0
  6
CONTINUOUS
 10
-12.125133999999999
 20
1.0564020000000001
 30
0.0
 11
-12.271834999999999
 21
1.098001
 31
0.0
  0
LINE
  5
148
  8
0
  6
CONTINUOUS
 10
-12.271834999999999
 20
1.098001
 30
0.0
 11
-12.373135
 21
1.1966019999999991
 31
0.0
  0
LINE
  5
149
  8
0
  6
CONTINUOUS
 10
-9.8395349999999997
 20
9.7398030000000002
 30
0.0
 11
-9.8791349999999998
 21
9.8592029999999991
 31
0.0
  0
LINE
  5
14A
  8
0
  6
CONTINUOUS
 10
-9.8791349999999998
 20
9.8592029999999991
 30
0.0
 11
-9.9809339999999995
 21
9.9309019999999997
 31
0.0
  0
LINE
  5
14B
  8
0
  6
CONTINUOUS
 10
-9.9809339999999995
 20
9.9309019999999997
 30
0.0
 11
-10.055134000000001
 21
9.9390029999999996
 31
0.0
  0
LINE
  5
14C
  8
0
  6
CONTINUOUS
 10
-15.623932
 20
9.9390029999999996
 30
0.0
 11
-15.745132
 21
9.9094029999999993
 31
0.0
  0
LINE
  5
14D
  8
0
  6
CONTINUOUS
 10
-15.745132
 20
9.9094029999999993
 30
0.0
 11
-15.825134
 21
9.8139020000000006
 31
0.0
  0
LINE
  5
14E
  8
0
  6
CONTINUOUS
 10
-15.825134
 20
9.8139020000000006
 30
0.0
 11
-15.839539
 21
9.7398030000000002
 31
0.0
  0
LINE
  5
14F
  8
0
  6
CONTINUOUS
 10
-13.254333000000001
 20
-1.7057990000000001
 30
0.0
 11
-12.429133999999999
 21
-1.7061959999999989
 31
0.0
  0
LINE
  5
150
  8
0
  6
CONTINUOUS
 10
-13.189537
 20
1.6166020000000001
 30
0.0
 11
-13.237335
 21
1.6520019999999991
 31
0.0
  0
LINE
  5
151
  8
0
  6
CONTINUOUS
 10
-13.237335
 20
1.6520019999999991
 30
0.0
 11
-13.217339000000001
 21
1.7079029999999991
 31
0.0
  0
LINE
  5
152
  8
0
  6
CONTINUOUS
 10
-13.217339000000001
 20
1.7079029999999991
 30
0.0
 11
-13.189537
 21
1.7166019999999991
 31
0.0
  0
LINE
  5
153
  8
0
  6
CONTINUOUS
 10
-13.189537
 20
1.8766020000000001
 30
0.0
 11
-13.237335
 21
1.912002999999999
 31
0.0
  0
LINE
  5
154
  8
0
  6
CONTINUOUS
 10
-13.237335
 20
1.912002999999999
 30
0.0
 11
-13.217339000000001
 21
1.9679029999999991
 31
0.0
  0
LINE
  5
155
  8
0
  6
CONTINUOUS
 10
-13.217339000000001
 20
1.9679029999999991
 30
0.0
 11
-13.189537
 21
1.976602999999999
 31
0.0
  0
LINE
  5
156
  8
0
  6
CONTINUOUS
 10
-11.999535
 20
1.8766020000000001
 30
0.0
 11
-11.825436
 21
1.836603
 31
0.0
  0
LINE
  5
157
  8
0
  6
CONTINUOUS
 10
-11.825436
 20
1.836603
 30
0.0
 11
-11.686935
 21
1.7261029999999991
 31
0.0
  0
LINE
  5
158
  8
0
  6
CONTINUOUS
 10
-11.686935
 20
1.7261029999999991
 30
0.0
 11
-11.609436000000001
 21
1.5652029999999999
 31
0.0
  0
LINE
  5
159
  8
0
  6
CONTINUOUS
 10
-11.609436000000001
 20
1.5652029999999999
 30
0.0
 11
-11.599532999999999
 21
1.4766030000000001
 31
0.0
  0
LINE
  5
15A
  8
0
  6
CONTINUOUS
 10
-14.079535999999999
 20
1.4766030000000001
 30
0.0
 11
-14.039635000000001
 21
1.6636029999999991
 31
0.0
  0
LINE
  5
15B
  8
0
  6
CONTINUOUS
 10
-14.039635000000001
 20
1.6636029999999991
 30
0.0
 11
-13.927436999999999
 21
1.8183020000000001
 31
0.0
  0
LINE
  5
15C
  8
0
  6
CONTINUOUS
 10
-13.927436999999999
 20
1.8183020000000001
 30
0.0
 11
-13.761932
 21
1.913902
 31
0.0
  0
LINE
  5
15D
  8
0
  6
CONTINUOUS
 10
-13.761932
 20
1.913902
 30
0.0
 11
-13.721138
 21
1.9250029999999989
 31
0.0
  0
LINE
  5
15E
  8
0
  6
CONTINUOUS
 10
-13.624733000000001
 20
1.7762029999999991
 30
0.0
 11
-13.770134000000001
 21
1.7357029999999991
 31
0.0
  0
LINE
  5
15F
  8
0
  6
CONTINUOUS
 10
-13.770134000000001
 20
1.7357029999999991
 30
0.0
 11
-13.878632
 21
1.6276019999999991
 31
0.0
  0
LINE
  5
160
  8
0
  6
CONTINUOUS
 10
-13.878632
 20
1.6276019999999991
 30
0.0
 11
-13.919532999999999
 21
1.4788019999999991
 31
0.0
  0
LINE
  5
161
  8
0
  6
CONTINUOUS
 10
-13.919532999999999
 20
1.4788019999999991
 30
0.0
 11
-13.919532999999999
 21
1.4766030000000001
 31
0.0
  0
LINE
  5
162
  8
0
  6
CONTINUOUS
 10
-13.699532
 20
1.3566020000000001
 30
0.0
 11
-13.662132
 21
1.2611030000000001
 31
0.0
  0
LINE
  5
163
  8
0
  6
CONTINUOUS
 10
-13.662132
 20
1.2611030000000001
 30
0.0
 11
-13.568436
 21
1.2169019999999999
 31
0.0
  0
LINE
  5
164
  8
0
  6
CONTINUOUS
 10
-13.568436
 20
1.2169019999999999
 30
0.0
 11
-13.470734
 21
1.2480029999999991
 31
0.0
  0
LINE
  5
165
  8
0
  6
CONTINUOUS
 10
-13.470734
 20
1.2480029999999991
 30
0.0
 11
-13.420837000000001
 21
1.3376030000000001
 31
0.0
  0
LINE
  5
166
  8
0
  6
CONTINUOUS
 10
-13.420837000000001
 20
1.3376030000000001
 30
0.0
 11
-13.419532999999999
 21
1.3566020000000001
 31
0.0
  0
LINE
  5
167
  8
0
  6
CONTINUOUS
 10
-12.259537
 20
1.3566020000000001
 30
0.0
 11
-12.222034000000001
 21
1.2613030000000001
 31
0.0
  0
LINE
  5
168
  8
0
  6
CONTINUOUS
 10
-12.222034000000001
 20
1.2613030000000001
 30
0.0
 11
-12.129536
 21
1.2169019999999999
 31
0.0
  0
LINE
  5
169
  8
0
  6
CONTINUOUS
 10
-12.129536
 20
1.2169019999999999
 30
0.0
 11
-12.031635
 21
1.2473030000000001
 31
0.0
  0
LINE
  5
16A
  8
0
  6
CONTINUOUS
 10
-12.031635
 20
1.2473030000000001
 30
0.0
 11
-11.981033
 21
1.3366029999999991
 31
0.0
  0
LINE
  5
16B
  8
0
  6
CONTINUOUS
 10
-11.981033
 20
1.3366029999999991
 30
0.0
 11
-11.979533999999999
 21
1.3566020000000001
 31
0.0
  0
LINE
  5
16C
  8
0
  6
CONTINUOUS
 10
-11.759537
 20
1.4766030000000001
 30
0.0
 11
-11.797935000000001
 21
1.6068020000000001
 31
0.0
  0
LINE
  5
16D
  8
0
  6
CONTINUOUS
 10
-11.797935000000001
 20
1.6068020000000001
 30
0.0
 11
-11.903835000000001
 21
1.696502999999999
 31
0.0
  0
LINE
  5
16E
  8
0
  6
CONTINUOUS
 10
-11.903835000000001
 20
1.696502999999999
 30
0.0
 11
-11.999535
 21
1.7166019999999991
 31
0.0
  0
ARC
  5
16F
  8
0
  6
CONTINUOUS
 10
13.018096999999999
 20
-7.5738259999999986
 30
0.0
 40
4.0
 50
11.4908
 51
75.121155000000002
  0
ARC
  5
170
  8
0
  6
CONTINUOUS
 10
18.684498000000001
 20
-10.347427
 30
0.0
 40
1.0
 50
191.49099699999999
 51
245.0
  0
ARC
  5
171
  8
0
  6
CONTINUOUS
 10
22.004895999999999
 20
-12.258228000000001
 30
0.0
 40
0.1
 50
180.0
 51
270.0
  0
ARC
  5
172
  8
0
  6
CONTINUOUS
 10
7.1048970000000002
 20
-1.7446289999999991
 30
0.0
 40
0.1
 50
180.25799599999999
 51
255.0
  0
ARC
  5
173
  8
0
  6
CONTINUOUS
 10
7.0448949999999986
 20
10.105371
 30
0.0
 40
0.2
 50
100.0
 51
179.94000199999999
  0
ARC
  5
174
  8
0
  6
CONTINUOUS
 10
9.0416980000000002
 20
-3.6634289999999998
 30
0.0
 40
0.4
 50
221.15100100000001
 51
255.0
  0
ARC
  5
175
  8
0
  6
CONTINUOUS
 10
5.7220949999999986
 20
-2.0494270000000001
 30
0.0
 40
0.2
 50
165.0
 51
253.108994
  0
ARC
  5
176
  8
0
  6
CONTINUOUS
 10
-12.839504
 20
-13.973091
 30
0.0
 40
10.0
 50
82.901236999999995
 51
97.098763000000034
  0
ARC
  5
177
  8
0
  6
CONTINUOUS
 10
-21.339500000000001
 20
12.541772999999999
 30
0.0
 40
0.2
 50
90.0
 51
180.0
  0
ARC
  5
178
  8
0
  6
CONTINUOUS
 10
-4.3395039999999989
 20
12.541772999999999
 30
0.0
 40
0.2
 50
0.0
 51
90.0
  0
ARC
  5
179
  8
0
  6
CONTINUOUS
 10
-15.639502999999999
 20
9.7413729999999994
 30
0.0
 40
0.24
 50
178.68400600000001
 51
180.0
  0
ARC
  5
17A
  8
0
  6
CONTINUOUS
 10
-10.039501
 20
9.7413729999999994
 30
0.0
 40
0.24
 50
0.0
 51
1.3158099999999999
  0
ARC
  5
17B
  8
0
  6
CONTINUOUS
 10
-14.519501
 20
-11.417026999999999
 30
0.0
 40
0.06
 50
180.0
 51
270.0
  0
ARC
  5
17C
  8
0
  6
CONTINUOUS
 10
-11.159504
 20
-11.417026999999999
 30
0.0
 40
0.06
 50
270.0
 51
0.0
  0
ARC
  5
17D
  8
0
  6
CONTINUOUS
 10
-13.875503999999999
 20
-19.971026999999999
 30
0.0
 40
18.428801
 50
91.090796999999981
 51
107.514999
  0
ARC
  5
17E
  8
0
  6
CONTINUOUS
 10
-11.855503000000001
 20
-20.288226999999999
 30
0.0
 40
18.747
 50
72.625396999999992
 51
88.768897999999979
  0
LINE
  5
17F
  8
0
  6
CONTINUOUS
 10
-5.0390699999999988
 20
41.950470000000003
 30
0.0
 11
-5.0390699999999988
 21
38.218052
 31
0.0
  0
LINE
  5
180
  8
0
  6
CONTINUOUS
 10
-29.256316999999999
 20
41.950470000000003
 30
0.0
 11
-29.256316999999999
 21
38.218052
 31
0.0
  0
LINE
  5
181
  8
0
  6
CONTINUOUS
 10
-29.256316999999999
 20
38.218052
 30
0.0
 11
-5.0390699999999988
 21
38.218052
 31
0.0
  0
LINE
  5
182
  8
0
  6
CONTINUOUS
 10
-29.256316999999999
 20
41.950470000000003
 30
0.0
 11
-5.0390699999999988
 21
41.950470000000003
 31
0.0
  0
LINE
  5
183
  8
0
  6
CONTINUOUS
 10
21.244897999999999
 20
-12.258228000000001
 30
0.0
 11
21.244897999999999
 21
12.541772999999999
 31
0.0
  0
LINE
  5
184
  8
0
  6
CONTINUOUS
 10
20.844895999999999
 20
12.541772999999999
 30
0.0
 11
20.844895999999999
 21
-12.258228000000001
 31
0.0
  0
LINE
  5
185
  8
0
  6
CONTINUOUS
 10
21.244897999999999
 20
12.741771999999999
 30
0.0
 11
21.244897999999999
 21
12.541772999999999
 31
0.0
  0
LINE
  5
186
  8
0
  6
CONTINUOUS
 10
20.844895999999999
 20
12.741771999999999
 30
0.0
 11
21.244897999999999
 21
12.741771999999999
 31
0.0
  0
LINE
  5
187
  8
0
  6
CONTINUOUS
 10
20.844895999999999
 20
12.541772999999999
 30
0.0
 11
20.844895999999999
 21
12.691371999999999
 31
0.0
  0
LINE
  5
188
  8
0
  6
CONTINUOUS
 10
21.244897999999999
 20
-12.458228999999999
 30
0.0
 11
20.844895999999999
 21
-12.458228999999999
 31
0.0
  0
LINE
  5
189
  8
0
  6
CONTINUOUS
 10
21.244897999999999
 20
-12.258228000000001
 30
0.0
 11
21.244897999999999
 21
-12.458228999999999
 31
0.0
  0
LINE
  5
18A
  8
0
  6
CONTINUOUS
 10
7.4348979999999987
 20
9.7525729999999982
 30
0.0
 11
7.4348979999999987
 21
-1.8578259999999991
 31
0.0
  0
LINE
  5
18B
  8
0
  6
CONTINUOUS
 10
17.704498000000001
 20
-10.546627000000001
 30
0.0
 11
16.93809899999999
 21
-6.7766270000000004
 31
0.0
  0
LINE
  5
18C
  8
0
  6
CONTINUOUS
 10
20.844895999999999
 20
-12.349826999999999
 30
0.0
 11
20.844895999999999
 21
-12.458228999999999
 31
0.0
  0
LINE
  5
18D
  8
0
  6
CONTINUOUS
 10
20.844895999999999
 20
-12.458228999999999
 30
0.0
 11
18.261696000000001
 21
-11.253826
 31
0.0
  0
LINE
  5
18E
  8
0
  6
CONTINUOUS
 10
20.844895999999999
 20
-12.349826999999999
 30
0.0
 11
20.844895999999999
 21
12.539771999999999
 31
0.0
  0
LINE
  5
18F
  8
0
  6
CONTINUOUS
 10
20.844895999999999
 20
12.741771999999999
 30
0.0
 11
20.844895999999999
 21
12.691371999999999
 31
0.0
  0
LINE
  5
190
  8
0
  6
CONTINUOUS
 10
15.023296
 20
11.714971999999999
 30
0.0
 11
20.844895999999999
 21
12.741771999999999
 31
0.0
  0
LINE
  5
191
  8
0
  6
CONTINUOUS
 10
21.904897999999999
 20
-12.258228000000001
 30
0.0
 11
21.904897999999999
 21
-11.958228999999999
 31
0.0
  0
LINE
  5
192
  8
0
  6
CONTINUOUS
 10
22.244897999999999
 20
-12.108226999999999
 30
0.0
 11
22.244897999999999
 21
-12.358226999999999
 31
0.0
  0
LINE
  5
193
  8
0
  6
CONTINUOUS
 10
22.244897999999999
 20
-12.358226999999999
 30
0.0
 11
22.004895999999999
 21
-12.358226999999999
 31
0.0
  0
LINE
  5
194
  8
0
  6
CONTINUOUS
 10
22.244897999999999
 20
-12.108226999999999
 30
0.0
 11
22.244897999999999
 21
-11.958228999999999
 31
0.0
  0
LINE
  5
195
  8
0
  6
CONTINUOUS
 10
16.753899000000001
 20
-6.1442220000000001
 30
0.0
 11
8.9381070000000005
 21
-4.0500299999999996
 31
0.0
  0
LINE
  5
196
  8
0
  6
CONTINUOUS
 10
14.665374999999999
 20
-3.9287679999999989
 30
0.0
 11
5.7744980000000004
 21
-1.545825999999999
 31
0.0
  0
LINE
  5
197
  8
0
  6
CONTINUOUS
 10
16.114097999999998
 20
-5.0410269999999988
 30
0.0
 11
5.6543080000000003
 21
-2.2375869999999991
 31
0.0
  0
LINE
  5
198
  8
0
  6
CONTINUOUS
 10
7.3856960000000003
 20
9.9373719999999999
 30
0.0
 11
7.4016950000000001
 21
9.9329719999999995
 31
0.0
  0
LINE
  5
199
  8
0
  6
CONTINUOUS
 10
7.432097999999999
 20
9.7397729999999996
 30
0.0
 11
7.4348979999999987
 21
-1.8434259999999989
 31
0.0
  0
LINE
  5
19A
  8
0
  6
CONTINUOUS
 10
22.444897000000001
 20
11.969772000000001
 30
0.0
 11
22.444897000000001
 21
11.947773
 31
0.0
  0
LINE
  5
19B
  8
0
  6
CONTINUOUS
 10
22.444897000000001
 20
11.997372
 30
0.0
 11
22.444897000000001
 21
11.969772000000001
 31
0.0
  0
LINE
  5
19C
  8
0
  6
CONTINUOUS
 10
22.444897000000001
 20
12.020573000000001
 30
0.0
 11
22.444897000000001
 21
11.997372
 31
0.0
  0
LINE
  5
19D
  8
0
  6
CONTINUOUS
 10
22.444897000000001
 20
12.036572
 30
0.0
 11
22.444897000000001
 21
12.020573000000001
 31
0.0
  0
LINE
  5
19E
  8
0
  6
CONTINUOUS
 10
22.444897000000001
 20
12.041772999999999
 30
0.0
 11
22.444897000000001
 21
12.036572
 31
0.0
  0
LINE
  5
19F
  8
0
  6
CONTINUOUS
 10
22.444897000000001
 20
-11.756228999999999
 30
0.0
 11
22.444897000000001
 21
-11.758228000000001
 31
0.0
  0
LINE
  5
1A0
  8
0
  6
CONTINUOUS
 10
22.444897000000001
 20
-11.745029000000001
 30
0.0
 11
22.444897000000001
 21
-11.756228999999999
 31
0.0
  0
LINE
  5
1A1
  8
0
  6
CONTINUOUS
 10
22.444897000000001
 20
-11.725028999999999
 30
0.0
 11
22.444897000000001
 21
-11.745029000000001
 31
0.0
  0
LINE
  5
1A2
  8
0
  6
CONTINUOUS
 10
22.444897000000001
 20
-11.696629
 30
0.0
 11
22.444897000000001
 21
-11.725028999999999
 31
0.0
  0
LINE
  5
1A3
  8
0
  6
CONTINUOUS
 10
22.444897000000001
 20
-11.664626999999999
 30
0.0
 11
22.444897000000001
 21
-11.696629
 31
0.0
  0
LINE
  5
1A4
  8
0
  6
CONTINUOUS
 10
22.444897000000001
 20
-11.758228000000001
 30
0.0
 11
22.444897000000001
 21
-11.958228999999999
 31
0.0
  0
LINE
  5
1A5
  8
0
  6
CONTINUOUS
 10
22.244897999999999
 20
-11.958228999999999
 30
0.0
 11
22.444897000000001
 21
-11.958228999999999
 31
0.0
  0
LINE
  5
1A6
  8
0
  6
CONTINUOUS
 10
21.744897999999999
 20
-11.958228999999999
 30
0.0
 11
21.904897999999999
 21
-11.958228999999999
 31
0.0
  0
LINE
  5
1A7
  8
0
  6
CONTINUOUS
 10
22.444897000000001
 20
12.241771999999999
 30
0.0
 11
22.444897000000001
 21
12.041772999999999
 31
0.0
  0
LINE
  5
1A8
  8
0
  6
CONTINUOUS
 10
21.244897999999999
 20
12.241771999999999
 30
0.0
 11
22.444897000000001
 21
12.241771999999999
 31
0.0
  0
LINE
  5
1A9
  8
0
  6
CONTINUOUS
 10
22.444897000000001
 20
-11.958228999999999
 30
0.0
 11
21.244897999999999
 21
-11.958228999999999
 31
0.0
  0
LINE
  5
1AA
  8
0
  6
CONTINUOUS
 10
22.444897000000001
 20
-11.758228000000001
 30
0.0
 11
22.444897000000001
 21
-11.958228999999999
 31
0.0
  0
LINE
  5
1AB
  8
0
  6
CONTINUOUS
 10
22.444897000000001
 20
-11.758228000000001
 30
0.0
 11
22.444897000000001
 21
12.041772999999999
 31
0.0
  0
LINE
  5
1AC
  8
0
  6
CONTINUOUS
 10
6.8448979999999988
 20
9.8729720000000007
 30
0.0
 11
7.0068970000000004
 21
9.8729720000000007
 31
0.0
  0
LINE
  5
1AD
  8
0
  6
CONTINUOUS
 10
7.004897999999999
 20
-1.7346269999999999
 30
0.0
 11
7.004897999999999
 21
-1.7446289999999991
 31
0.0
  0
LINE
  5
1AE
  8
0
  6
CONTINUOUS
 10
7.004897999999999
 20
9.8729720000000007
 30
0.0
 11
7.004897999999999
 21
9.8597719999999995
 31
0.0
  0
LINE
  5
1AF
  8
0
  6
CONTINUOUS
 10
6.8448979999999988
 20
10.105371
 30
0.0
 11
6.8448979999999988
 21
9.8737720000000007
 31
0.0
  0
LINE
  5
1B0
  8
0
  6
CONTINUOUS
 10
7.7716979999999989
 20
-2.805428
 30
0.0
 11
8.7404979999999988
 21
-3.926628
 31
0.0
  0
LINE
  5
1B1
  8
0
  6
CONTINUOUS
 10
5.5812989999999987
 20
-1.801825999999999
 30
0.0
 11
5.5288959999999987
 21
-1.9974289999999999
 31
0.0
  0
LINE
  5
1B2
  8
0
  6
CONTINUOUS
 10
7.3856960000000003
 20
9.9397719999999996
 30
0.0
 11
7.359299
 21
9.9397719999999996
 31
0.0
  0
LINE
  5
1B3
  8
0
  6
CONTINUOUS
 10
6.8828959999999997
 20
9.8729720000000007
 30
0.0
 11
6.8828959999999997
 21
-1.703425999999999
 31
0.0
  0
LINE
  5
1B4
  8
0
  6
CONTINUOUS
 10
-14.579506
 20
-11.618228999999999
 30
0.0
 11
-11.099503
 21
-11.618228999999999
 31
0.0
  0
LINE
  5
1B5
  8
0
  6
CONTINUOUS
 10
-20.846343999999998
 20
-11.282227000000001
 30
0.0
 11
-20.906303000000001
 21
-11.282227000000001
 31
0.0
  0
LINE
  5
1B6
  8
0
  6
CONTINUOUS
 10
-20.846343999999998
 20
-11.282227000000001
 30
0.0
 11
-14.699501
 21
-11.282227000000001
 31
0.0
  0
LINE
  5
1B7
  8
0
  6
CONTINUOUS
 10
-10.979504
 20
-11.282227000000001
 30
0.0
 11
-4.8327029999999986
 21
-11.282227000000001
 31
0.0
  0
LINE
  5
1B8
  8
0
  6
CONTINUOUS
 10
-21.433197
 20
-11.020061
 30
0.0
 11
-21.403053
 21
-6.7730789999999992
 31
0.0
  0
LINE
  5
1B9
  8
0
  6
CONTINUOUS
 10
-21.538108999999999
 20
-12.420887
 30
0.0
 11
-21.433197
 21
-11.020061
 31
0.0
  0
LINE
  5
1BA
  8
0
  6
CONTINUOUS
 10
-20.931647999999999
 20
-3.156231
 30
0.0
 11
-19.938704999999999
 21
-2.6254270000000002
 31
0.0
  0
LINE
  5
1BB
  8
0
  6
CONTINUOUS
 10
-4.1395029999999986
 20
12.539771999999999
 30
0.0
 11
-4.3419040000000004
 21
11.518173000000001
 31
0.0
  0
LINE
  5
1BC
  8
0
  6
CONTINUOUS
 10
-21.337181000000001
 20
11.518173000000001
 30
0.0
 11
-21.539504999999998
 21
12.539771999999999
 31
0.0
  0
LINE
  5
1BD
  8
0
  6
CONTINUOUS
 10
-4.1409000000000002
 20
-12.420887
 30
0.0
 11
-4.2458109999999989
 21
-11.020061
 31
0.0
  0
LINE
  5
1BE
  8
0
  6
CONTINUOUS
 10
-4.2458109999999989
 20
-11.020061
 30
0.0
 11
-4.2759549999999997
 21
-6.7730789999999992
 31
0.0
  0
LINE
  5
1BF
  8
0
  6
CONTINUOUS
 10
-4.7473599999999987
 20
-3.156231
 30
0.0
 11
-5.740302999999999
 21
-2.6254270000000002
 31
0.0
  0
LINE
  5
1C0
  8
0
  6
CONTINUOUS
 10
-11.159504
 20
-11.334629
 30
0.0
 11
-14.519501
 21
-11.334629
 31
0.0
  0
LINE
  5
1C1
  8
0
  6
CONTINUOUS
 10
-5.5607030000000002
 20
-5.5106279999999987
 30
0.0
 11
-5.5607030000000002
 21
-5.5038260000000001
 31
0.0
  0
LINE
  5
1C2
  8
0
  6
CONTINUOUS
 10
-4.960704999999999
 20
-5.2070270000000001
 30
0.0
 11
-4.9611019999999986
 21
-5.2014269999999989
 31
0.0
  0
LINE
  5
1C3
  8
0
  6
CONTINUOUS
 10
-20.717818999999999
 20
-5.2014269999999989
 30
0.0
 11
-20.718184999999998
 21
-5.2070270000000001
 31
0.0
  0
LINE
  5
1C4
  8
0
  6
CONTINUOUS
 10
-20.118179000000001
 20
-5.5106279999999987
 30
0.0
 11
-20.118179000000001
 21
-5.5038260000000001
 31
0.0
  0
LINE
  5
1C5
  8
0
  6
CONTINUOUS
 10
-16.239502000000002
 20
-5.2966269999999991
 30
0.0
 11
-17.799499999999998
 21
-5.2966269999999991
 31
0.0
  0
LINE
  5
1C6
  8
0
  6
CONTINUOUS
 10
-10.19421
 20
-5.800387999999999
 30
0.0
 11
-9.5309679999999997
 21
-4.929282999999999
 31
0.0
  0
LINE
  5
1C7
  8
0
  6
CONTINUOUS
 10
-15.475304
 20
-5.7983250000000002
 30
0.0
 11
-14.075302000000001
 21
-5.4943889999999991
 31
0.0
  0
LINE
  5
1C8
  8
0
  6
CONTINUOUS
 10
-10.203701000000001
 20
-6.210712
 30
0.0
 11
-10.203701000000001
 21
-5.7983250000000002
 31
0.0
  0
LINE
  5
1C9
  8
0
  6
CONTINUOUS
 10
-14.075302000000001
 20
-5.4943889999999991
 30
0.0
 11
-14.075302000000001
 21
-4.0497469999999991
 31
0.0
  0
LINE
  5
1CA
  8
0
  6
CONTINUOUS
 10
-11.603702999999999
 20
-4.0497469999999991
 30
0.0
 11
-11.603702999999999
 21
-5.4943889999999991
 31
0.0
  0
LINE
  5
1CB
  8
0
  6
CONTINUOUS
 10
-14.075302000000001
 20
-5.4943889999999991
 30
0.0
 11
-14.859222000000001
 21
-4.5833820000000003
 31
0.0
  0
LINE
  5
1CC
  8
0
  6
CONTINUOUS
 10
-20.717818999999999
 20
-4.7186279999999989
 30
0.0
 11
-20.717818999999999
 21
-5.2014269999999989
 31
0.0
  0
LINE
  5
1CD
  8
0
  6
CONTINUOUS
 10
-15.475304
 20
-5.812854999999999
 30
0.0
 11
-16.164566000000001
 21
-4.9075739999999994
 31
0.0
  0
LINE
  5
1CE
  8
0
  6
CONTINUOUS
 10
-11.603702999999999
 20
-5.4943889999999991
 30
0.0
 11
-10.203701000000001
 21
-5.7983250000000002
 31
0.0
  0
LINE
  5
1CF
  8
0
  6
CONTINUOUS
 10
-11.603702999999999
 20
-4.0497469999999991
 30
0.0
 11
-10.893105
 21
-2.9590259999999988
 31
0.0
  0
LINE
  5
1D0
  8
0
  6
CONTINUOUS
 10
-11.603702999999999
 20
-5.4943889999999991
 30
0.0
 11
-10.819786000000001
 21
-4.5833779999999988
 31
0.0
  0
LINE
  5
1D1
  8
0
  6
CONTINUOUS
 10
-14.075302000000001
 20
-4.0497469999999991
 30
0.0
 11
-14.786705
 21
-2.9598270000000002
 31
0.0
  0
LINE
  5
1D2
  8
0
  6
CONTINUOUS
 10
-9.4395030000000002
 20
-5.2966269999999991
 30
0.0
 11
-7.8795009999999994
 21
-5.2966269999999991
 31
0.0
  0
LINE
  5
1D3
  8
0
  6
CONTINUOUS
 10
-5.1611019999999987
 20
-5.396628999999999
 30
0.0
 11
-5.3607029999999991
 21
-3.9166259999999999
 31
0.0
  0
LINE
  5
1D4
  8
0
  6
CONTINUOUS
 10
-20.318306
 20
-3.9166259999999999
 30
0.0
 11
-20.517944
 21
-5.396628999999999
 31
0.0
  0
LINE
  5
1D5
  8
0
  6
CONTINUOUS
 10
-15.475304
 20
-6.2106399999999988
 30
0.0
 11
-15.475304
 21
-5.7983250000000002
 31
0.0
  0
LINE
  5
1D6
  8
0
  6
CONTINUOUS
 10
-12.838303
 20
-2.242626
 30
0.0
 11
-12.839504
 21
-2.242626
 31
0.0
  0
LINE
  5
1D7
  8
0
  6
CONTINUOUS
 10
-4.3395039999999989
 20
12.741771999999999
 30
0.0
 11
-21.339500000000001
 21
12.741771999999999
 31
0.0
  0
LINE
  5
1D8
  8
0
  6
CONTINUOUS
 10
-21.539504999999998
 20
12.541772999999999
 30
0.0
 11
-21.539504999999998
 21
-12.258228000000001
 31
0.0
  0
LINE
  5
1D9
  8
0
  6
CONTINUOUS
 10
-21.339500000000001
 20
-12.458228999999999
 30
0.0
 11
-20.930344000000002
 21
-12.458228999999999
 31
0.0
  0
LINE
  5
1DA
  8
0
  6
CONTINUOUS
 10
-4.748702999999999
 20
-12.458228999999999
 30
0.0
 11
-4.3395039999999989
 21
-12.458228999999999
 31
0.0
  0
LINE
  5
1DB
  8
0
  6
CONTINUOUS
 10
-4.1395029999999986
 20
12.541772999999999
 30
0.0
 11
-4.1395029999999986
 21
-12.258228000000001
 31
0.0
  0
LINE
  5
1DC
  8
0
  6
CONTINUOUS
 10
-7.0619009999999989
 20
-10.158226000000001
 30
0.0
 11
-6.891502
 21
-10.238628
 31
0.0
  0
LINE
  5
1DD
  8
0
  6
CONTINUOUS
 10
-6.891502
 20
-10.238628
 30
0.0
 11
-6.7907029999999988
 21
-10.030628
 31
0.0
  0
LINE
  5
1DE
  8
0
  6
CONTINUOUS
 10
-6.7907029999999988
 20
-10.030628
 30
0.0
 11
-7.0619009999999989
 21
-10.158226000000001
 31
0.0
  0
LINE
  5
1DF
  8
0
  6
CONTINUOUS
 10
-6.7395019999999999
 20
-10.310226
 30
0.0
 11
-6.6419030000000001
 21
-10.264229
 31
0.0
  0
LINE
  5
1E0
  8
0
  6
CONTINUOUS
 10
-6.6419030000000001
 20
-10.264229
 30
0.0
 11
-6.6639020000000002
 21
-10.218227000000001
 31
0.0
  0
LINE
  5
1E1
  8
0
  6
CONTINUOUS
 10
-6.6639020000000002
 20
-10.218227000000001
 30
0.0
 11
-6.8151020000000004
 21
-10.218227000000001
 31
0.0
  0
LINE
  5
1E2
  8
0
  6
CONTINUOUS
 10
-6.8151020000000004
 20
-10.218227000000001
 30
0.0
 11
-6.8371050000000002
 21
-10.264229
 31
0.0
  0
LINE
  5
1E3
  8
0
  6
CONTINUOUS
 10
-6.8371050000000002
 20
-10.264229
 30
0.0
 11
-6.7395019999999999
 21
-10.310226
 31
0.0
  0
LINE
  5
1E4
  8
0
  6
CONTINUOUS
 10
-6.7395019999999999
 20
-10.062229
 30
0.0
 11
-6.787903
 21
-10.162228000000001
 31
0.0
  0
LINE
  5
1E5
  8
0
  6
CONTINUOUS
 10
-6.787903
 20
-10.162228000000001
 30
0.0
 11
-6.6911009999999989
 21
-10.162228000000001
 31
0.0
  0
LINE
  5
1E6
  8
0
  6
CONTINUOUS
 10
-6.6911009999999989
 20
-10.162228000000001
 30
0.0
 11
-6.7395019999999999
 21
-10.062229
 31
0.0
  0
LINE
  5
1E7
  8
0
  6
CONTINUOUS
 10
-6.5875019999999997
 20
-10.238628
 30
0.0
 11
-6.417103
 21
-10.158226000000001
 31
0.0
  0
LINE
  5
1E8
  8
0
  6
CONTINUOUS
 10
-6.417103
 20
-10.158226000000001
 30
0.0
 11
-6.6883009999999992
 21
-10.030628
 31
0.0
  0
LINE
  5
1E9
  8
0
  6
CONTINUOUS
 10
-6.6883009999999992
 20
-10.030628
 30
0.0
 11
-6.5875019999999997
 21
-10.238628
 31
0.0
  0
LINE
  5
1EA
  8
0
  6
CONTINUOUS
 10
-9.0587039999999988
 20
-10.194229
 30
0.0
 11
-9.0587039999999988
 21
-9.7978290000000001
 31
0.0
  0
LINE
  5
1EB
  8
0
  6
CONTINUOUS
 10
-9.0587039999999988
 20
-9.7978290000000001
 30
0.0
 11
-8.9515039999999981
 21
-9.7978290000000001
 31
0.0
  0
LINE
  5
1EC
  8
0
  6
CONTINUOUS
 10
-8.9515039999999981
 20
-10.025429000000001
 30
0.0
 11
-9.0107039999999987
 21
-10.025429000000001
 31
0.0
  0
LINE
  5
1ED
  8
0
  6
CONTINUOUS
 10
-9.0107039999999987
 20
-10.025429000000001
 30
0.0
 11
-9.0107039999999987
 21
-10.194229
 31
0.0
  0
LINE
  5
1EE
  8
0
  6
CONTINUOUS
 10
-9.0107039999999987
 20
-10.194229
 30
0.0
 11
-9.0587039999999988
 21
-10.194229
 31
0.0
  0
LINE
  5
1EF
  8
0
  6
CONTINUOUS
 10
-8.8359030000000001
 20
-9.5614279999999994
 30
0.0
 11
-9.5247039999999998
 21
-10.158226000000001
 31
0.0
  0
LINE
  5
1F0
  8
0
  6
CONTINUOUS
 10
-9.5247039999999998
 20
-10.158226000000001
 30
0.0
 11
-8.8359030000000001
 21
-10.755428
 31
0.0
  0
LINE
  5
1F1
  8
0
  6
CONTINUOUS
 10
-8.8359030000000001
 20
-10.755428
 30
0.0
 11
-8.1471020000000003
 21
-10.158226000000001
 31
0.0
  0
LINE
  5
1F2
  8
0
  6
CONTINUOUS
 10
-8.1471020000000003
 20
-10.158226000000001
 30
0.0
 11
-8.8359030000000001
 21
-9.5614279999999994
 31
0.0
  0
LINE
  5
1F3
  8
0
  6
CONTINUOUS
 10
-8.7651020000000006
 20
-10.286629
 30
0.0
 11
-8.8779029999999999
 21
-10.286629
 31
0.0
  0
LINE
  5
1F4
  8
0
  6
CONTINUOUS
 10
-8.8779029999999999
 20
-10.286629
 30
0.0
 11
-8.8779029999999999
 21
-10.383025999999999
 31
0.0
  0
LINE
  5
1F5
  8
0
  6
CONTINUOUS
 10
-8.8779029999999999
 20
-10.383025999999999
 30
0.0
 11
-8.7743029999999997
 21
-10.383025999999999
 31
0.0
  0
LINE
  5
1F6
  8
0
  6
CONTINUOUS
 10
-8.7743029999999997
 20
-10.383025999999999
 30
0.0
 11
-8.7743029999999997
 21
-10.411827000000001
 31
0.0
  0
LINE
  5
1F7
  8
0
  6
CONTINUOUS
 10
-8.7743029999999997
 20
-10.411827000000001
 30
0.0
 11
-8.8779029999999999
 21
-10.411827000000001
 31
0.0
  0
LINE
  5
1F8
  8
0
  6
CONTINUOUS
 10
-8.8779029999999999
 20
-10.411827000000001
 30
0.0
 11
-8.8779029999999999
 21
-10.526225999999999
 31
0.0
  0
LINE
  5
1F9
  8
0
  6
CONTINUOUS
 10
-8.8779029999999999
 20
-10.526225999999999
 30
0.0
 11
-8.7575039999999991
 21
-10.526225999999999
 31
0.0
  0
LINE
  5
1FA
  8
0
  6
CONTINUOUS
 10
-8.7575039999999991
 20
-10.526225999999999
 30
0.0
 11
-8.7575039999999991
 21
-10.555427999999999
 31
0.0
  0
LINE
  5
1FB
  8
0
  6
CONTINUOUS
 10
-8.7575039999999991
 20
-10.555427999999999
 30
0.0
 11
-8.9139020000000002
 21
-10.555427999999999
 31
0.0
  0
LINE
  5
1FC
  8
0
  6
CONTINUOUS
 10
-8.9139020000000002
 20
-10.555427999999999
 30
0.0
 11
-8.9139020000000002
 21
-10.257828
 31
0.0
  0
LINE
  5
1FD
  8
0
  6
CONTINUOUS
 10
-8.9139020000000002
 20
-10.257828
 30
0.0
 11
-8.7651020000000006
 21
-10.257828
 31
0.0
  0
LINE
  5
1FE
  8
0
  6
CONTINUOUS
 10
-8.7651020000000006
 20
-10.257828
 30
0.0
 11
-8.7651020000000006
 21
-10.286629
 31
0.0
  0
LINE
  5
1FF
  8
0
  6
CONTINUOUS
 10
-8.805102999999999
 20
-10.090626
 30
0.0
 11
-8.805102999999999
 21
-10.070228999999999
 31
0.0
  0
LINE
  5
200
  8
0
  6
CONTINUOUS
 10
-8.805102999999999
 20
-10.070228999999999
 30
0.0
 11
-8.758305
 21
-10.070228999999999
 31
0.0
  0
LINE
  5
201
  8
0
  6
CONTINUOUS
 10
-8.758305
 20
-10.070228999999999
 30
0.0
 11
-8.758305
 21
-10.088627000000001
 31
0.0
  0
LINE
  5
202
  8
0
  6
CONTINUOUS
 10
-8.5979039999999998
 20
-9.9074289999999987
 30
0.0
 11
-8.6447029999999998
 21
-9.9074289999999987
 31
0.0
  0
LINE
  5
203
  8
0
  6
CONTINUOUS
 10
-8.9639019999999991
 20
-9.8362269999999992
 30
0.0
 11
-9.0107039999999987
 21
-9.8362269999999992
 31
0.0
  0
LINE
  5
204
  8
0
  6
CONTINUOUS
 10
-9.0107039999999987
 20
-9.8362269999999992
 30
0.0
 11
-9.0107039999999987
 21
-9.9870260000000002
 31
0.0
  0
LINE
  5
205
  8
0
  6
CONTINUOUS
 10
-9.0107039999999987
 20
-9.9870260000000002
 30
0.0
 11
-8.9639019999999991
 21
-9.9870260000000002
 31
0.0
  0
LINE
  5
206
  8
0
  6
CONTINUOUS
 10
-7.0859030000000001
 20
-10.158226000000001
 30
0.0
 11
-6.7395019999999999
 21
-10.358226999999999
 31
0.0
  0
LINE
  5
207
  8
0
  6
CONTINUOUS
 10
-6.7395019999999999
 20
-9.9582289999999993
 30
0.0
 11
-7.0859030000000001
 21
-10.158226000000001
 31
0.0
  0
LINE
  5
208
  8
0
  6
CONTINUOUS
 10
-6.3931050000000003
 20
-10.158226000000001
 30
0.0
 11
-6.7395019999999999
 21
-9.9582289999999993
 31
0.0
  0
LINE
  5
209
  8
0
  6
CONTINUOUS
 10
-6.7395019999999999
 20
-10.358226999999999
 30
0.0
 11
-6.3931050000000003
 21
-10.158226000000001
 31
0.0
  0
LINE
  5
20A
  8
0
  6
CONTINUOUS
 10
-8.8359030000000001
 20
-10.808228
 30
0.0
 11
-8.0859030000000001
 21
-10.158226000000001
 31
0.0
  0
LINE
  5
20B
  8
0
  6
CONTINUOUS
 10
-9.5859030000000001
 20
-10.158226000000001
 30
0.0
 11
-8.8359030000000001
 21
-10.808228
 31
0.0
  0
LINE
  5
20C
  8
0
  6
CONTINUOUS
 10
-8.8359030000000001
 20
-9.508227999999999
 30
0.0
 11
-9.5859030000000001
 21
-10.158226000000001
 31
0.0
  0
LINE
  5
20D
  8
0
  6
CONTINUOUS
 10
-8.0859030000000001
 20
-10.158226000000001
 30
0.0
 11
-8.8359030000000001
 21
-9.508227999999999
 31
0.0
  0
LINE
  5
20E
  8
0
  6
CONTINUOUS
 10
-7.5179020000000003
 20
-9.9962270000000011
 30
0.0
 11
-7.6683039999999991
 21
-9.9962270000000011
 31
0.0
  0
LINE
  5
20F
  8
0
  6
CONTINUOUS
 10
-7.6683039999999991
 20
-9.9962270000000011
 30
0.0
 11
-7.6683039999999991
 21
-10.124625999999999
 31
0.0
  0
LINE
  5
210
  8
0
  6
CONTINUOUS
 10
-7.6683039999999991
 20
-10.124625999999999
 30
0.0
 11
-7.529903
 21
-10.124625999999999
 31
0.0
  0
LINE
  5
211
  8
0
  6
CONTINUOUS
 10
-7.529903
 20
-10.124625999999999
 30
0.0
 11
-7.529903
 21
-10.163029
 31
0.0
  0
LINE
  5
212
  8
0
  6
CONTINUOUS
 10
-7.529903
 20
-10.163029
 30
0.0
 11
-7.6683039999999991
 21
-10.163029
 31
0.0
  0
LINE
  5
213
  8
0
  6
CONTINUOUS
 10
-7.6683039999999991
 20
-10.163029
 30
0.0
 11
-7.6683039999999991
 21
-10.315825999999999
 31
0.0
  0
LINE
  5
214
  8
0
  6
CONTINUOUS
 10
-7.6683039999999991
 20
-10.315825999999999
 30
0.0
 11
-7.5075039999999991
 21
-10.315825999999999
 31
0.0
  0
LINE
  5
215
  8
0
  6
CONTINUOUS
 10
-7.5075039999999991
 20
-10.315825999999999
 30
0.0
 11
-7.5075039999999991
 21
-10.354229
 31
0.0
  0
LINE
  5
216
  8
0
  6
CONTINUOUS
 10
-7.5075039999999991
 20
-10.354229
 30
0.0
 11
-7.7163050000000002
 21
-10.354229
 31
0.0
  0
LINE
  5
217
  8
0
  6
CONTINUOUS
 10
-7.7163050000000002
 20
-10.354229
 30
0.0
 11
-7.7163050000000002
 21
-9.9578289999999985
 31
0.0
  0
LINE
  5
218
  8
0
  6
CONTINUOUS
 10
-7.7163050000000002
 20
-9.9578289999999985
 30
0.0
 11
-7.5179020000000003
 21
-9.9578289999999985
 31
0.0
  0
LINE
  5
219
  8
0
  6
CONTINUOUS
 10
-7.5179020000000003
 20
-9.9578289999999985
 30
0.0
 11
-7.5179020000000003
 21
-9.9962270000000011
 31
0.0
  0
LINE
  5
21A
  8
0
  6
CONTINUOUS
 10
-7.8243029999999987
 20
-9.9578289999999985
 30
0.0
 11
-7.7759020000000003
 21
-9.9578289999999985
 31
0.0
  0
LINE
  5
21B
  8
0
  6
CONTINUOUS
 10
-7.7759020000000003
 20
-9.9578289999999985
 30
0.0
 11
-7.7759020000000003
 21
-10.224228
 31
0.0
  0
LINE
  5
21C
  8
0
  6
CONTINUOUS
 10
-7.9787030000000003
 20
-10.224228
 30
0.0
 11
-7.9787030000000003
 21
-10.195827
 31
0.0
  0
LINE
  5
21D
  8
0
  6
CONTINUOUS
 10
-7.9787030000000003
 20
-10.195827
 30
0.0
 11
-7.9307020000000001
 21
-10.195827
 31
0.0
  0
LINE
  5
21E
  8
0
  6
CONTINUOUS
 10
-7.9307020000000001
 20
-10.195827
 30
0.0
 11
-7.9307020000000001
 21
-10.234226
 31
0.0
  0
LINE
  5
21F
  8
0
  6
CONTINUOUS
 10
-7.8243029999999987
 20
-10.226227
 30
0.0
 11
-7.8243029999999987
 21
-9.9578289999999985
 31
0.0
  0
LINE
  5
220
  8
0
  6
CONTINUOUS
 10
-7.3347020000000001
 20
-9.9962270000000011
 30
0.0
 11
-7.3347020000000001
 21
-10.354229
 31
0.0
  0
LINE
  5
221
  8
0
  6
CONTINUOUS
 10
-7.3347020000000001
 20
-10.354229
 30
0.0
 11
-7.3827020000000001
 21
-10.354229
 31
0.0
  0
LINE
  5
222
  8
0
  6
CONTINUOUS
 10
-7.3827020000000001
 20
-10.354229
 30
0.0
 11
-7.3827020000000001
 21
-9.9962270000000011
 31
0.0
  0
LINE
  5
223
  8
0
  6
CONTINUOUS
 10
-7.3827020000000001
 20
-9.9962270000000011
 30
0.0
 11
-7.460704999999999
 21
-9.9962270000000011
 31
0.0
  0
LINE
  5
224
  8
0
  6
CONTINUOUS
 10
-7.460704999999999
 20
-9.9962270000000011
 30
0.0
 11
-7.460704999999999
 21
-9.9578289999999985
 31
0.0
  0
LINE
  5
225
  8
0
  6
CONTINUOUS
 10
-7.460704999999999
 20
-9.9578289999999985
 30
0.0
 11
-7.2515029999999987
 21
-9.9578289999999985
 31
0.0
  0
LINE
  5
226
  8
0
  6
CONTINUOUS
 10
-7.2515029999999987
 20
-9.9578289999999985
 30
0.0
 11
-7.2515029999999987
 21
-9.9962270000000011
 31
0.0
  0
LINE
  5
227
  8
0
  6
CONTINUOUS
 10
-7.2515029999999987
 20
-9.9962270000000011
 30
0.0
 11
-7.3347020000000001
 21
-9.9962270000000011
 31
0.0
  0
LINE
  5
228
  8
0
  6
CONTINUOUS
 10
-20.930344000000002
 20
-12.458228999999999
 30
0.0
 11
-4.748702999999999
 21
-12.458228999999999
 31
0.0
  0
LINE
  5
229
  8
0
  6
CONTINUOUS
 10
-11.039501
 20
-11.562229
 30
0.0
 11
-11.039501
 21
-11.282227000000001
 31
0.0
  0
LINE
  5
22A
  8
0
  6
CONTINUOUS
 10
-14.639502999999999
 20
-11.282227000000001
 30
0.0
 11
-14.639502999999999
 21
-11.562229
 31
0.0
  0
LINE
  5
22B
  8
0
  6
CONTINUOUS
 10
-11.039501
 20
-8.1582259999999991
 30
0.0
 11
-14.639502999999999
 21
-8.1582259999999991
 31
0.0
  0
LINE
  5
22C
  8
0
  6
CONTINUOUS
 10
-14.639502999999999
 20
-8.1582259999999991
 30
0.0
 11
-14.639502999999999
 21
-11.282227000000001
 31
0.0
  0
LINE
  5
22D
  8
0
  6
CONTINUOUS
 10
-11.039501
 20
-11.282227000000001
 30
0.0
 11
-11.039501
 21
-8.1582259999999991
 31
0.0
  0
LINE
  5
22E
  8
0
  6
CONTINUOUS
 10
-10.639502999999999
 20
-10.958228999999999
 30
0.0
 11
-5.0395009999999996
 21
-10.958228999999999
 31
0.0
  0
LINE
  5
22F
  8
0
  6
CONTINUOUS
 10
-10.639502999999999
 20
-7.3582270000000003
 30
0.0
 11
-10.639502999999999
 21
-10.958228999999999
 31
0.0
  0
LINE
  5
230
  8
0
  6
CONTINUOUS
 10
-5.0395009999999996
 20
-7.3582270000000003
 30
0.0
 11
-10.639502999999999
 21
-7.3582270000000003
 31
0.0
  0
LINE
  5
231
  8
0
  6
CONTINUOUS
 10
-5.0395009999999996
 20
-10.958228999999999
 30
0.0
 11
-5.0395009999999996
 21
-7.3582270000000003
 31
0.0
  0
LINE
  5
232
  8
0
  6
CONTINUOUS
 10
-7.839503999999998
 20
-6.918228
 30
0.0
 11
-7.839503999999998
 21
-5.5106279999999987
 31
0.0
  0
LINE
  5
233
  8
0
  6
CONTINUOUS
 10
-8.7395019999999999
 20
-6.918228
 30
0.0
 11
-7.839503999999998
 21
-6.918228
 31
0.0
  0
LINE
  5
234
  8
0
  6
CONTINUOUS
 10
-16.939506999999999
 20
-6.918228
 30
0.0
 11
-8.7395019999999999
 21
-6.918228
 31
0.0
  0
LINE
  5
235
  8
0
  6
CONTINUOUS
 10
-17.839500000000001
 20
-6.918228
 30
0.0
 11
-16.939506999999999
 21
-6.918228
 31
0.0
  0
LINE
  5
236
  8
0
  6
CONTINUOUS
 10
-17.839500000000001
 20
-5.5106279999999987
 30
0.0
 11
-17.839500000000001
 21
-6.918228
 31
0.0
  0
LINE
  5
237
  8
0
  6
CONTINUOUS
 10
-20.989502000000002
 20
-12.393027999999999
 30
0.0
 11
-20.989502000000002
 21
-11.790627000000001
 31
0.0
  0
LINE
  5
238
  8
0
  6
CONTINUOUS
 10
-4.6895030000000002
 20
-11.790627000000001
 30
0.0
 11
-4.6895030000000002
 21
-12.393027999999999
 31
0.0
  0
LINE
  5
239
  8
0
  6
CONTINUOUS
 10
-4.8343049999999996
 20
-4.5782280000000002
 30
0.0
 11
-4.9803050000000004
 21
-4.5782280000000002
 31
0.0
  0
LINE
  5
23A
  8
0
  6
CONTINUOUS
 10
-20.698906000000001
 20
-4.5782280000000002
 30
0.0
 11
-20.844826000000001
 21
-4.5782280000000002
 31
0.0
  0
LINE
  5
23B
  8
0
  6
CONTINUOUS
 10
-4.7299040000000003
 20
-11.253826
 30
0.0
 11
-4.6395029999999986
 21
-12.458228999999999
 31
0.0
  0
LINE
  5
23C
  8
0
  6
CONTINUOUS
 10
-4.2379040000000003
 20
-12.458228999999999
 30
0.0
 11
-4.6395029999999986
 21
-12.458228999999999
 31
0.0
  0
LINE
  5
23D
  8
0
  6
CONTINUOUS
 10
-21.039504999999998
 20
-12.458228999999999
 30
0.0
 11
-20.949303
 21
-11.253826
 31
0.0
  0
LINE
  5
23E
  8
0
  6
CONTINUOUS
 10
-21.039504999999998
 20
-12.458228999999999
 30
0.0
 11
-21.440902999999999
 21
-12.458228999999999
 31
0.0
  0
LINE
  5
23F
  8
0
  6
CONTINUOUS
 10
-20.929825000000001
 20
-10.546627000000001
 30
0.0
 11
-20.903061000000001
 21
-6.7766270000000004
 31
0.0
  0
LINE
  5
240
  8
0
  6
CONTINUOUS
 10
-4.7759019999999994
 20
-6.7766270000000004
 30
0.0
 11
-4.7491039999999991
 21
-10.546627000000001
 31
0.0
  0
LINE
  5
241
  8
0
  6
CONTINUOUS
 10
-21.539504999999998
 20
-12.349826999999999
 30
0.0
 11
-21.539504999999998
 21
12.539771999999999
 31
0.0
  0
LINE
  5
242
  8
0
  6
CONTINUOUS
 10
-4.1395029999999986
 20
-12.349826999999999
 30
0.0
 11
-4.1395029999999986
 21
12.539771999999999
 31
0.0
  0
LINE
  5
243
  8
0
  6
CONTINUOUS
 10
-15.879500999999999
 20
9.7413729999999994
 30
0.0
 11
-15.879500999999999
 21
-1.6686289999999999
 31
0.0
  0
LINE
  5
244
  8
0
  6
CONTINUOUS
 10
-9.7995029999999996
 20
-1.6686289999999999
 30
0.0
 11
-9.7995029999999996
 21
9.7413729999999994
 31
0.0
  0
LINE
  5
245
  8
0
  6
CONTINUOUS
 10
-4.3383029999999989
 20
12.741771999999999
 30
0.0
 11
-21.340584
 21
12.741771999999999
 31
0.0
  0
LINE
  5
246
  8
0
  6
CONTINUOUS
 10
-15.951499999999999
 20
-1.6762279999999989
 30
0.0
 11
-15.951499999999999
 21
9.7525729999999982
 31
0.0
  0
LINE
  5
247
  8
0
  6
CONTINUOUS
 10
-9.7275050000000007
 20
9.7525729999999982
 30
0.0
 11
-9.7275050000000007
 21
-1.6762279999999989
 31
0.0
  0
LINE
  5
248
  8
0
  6
CONTINUOUS
 10
-14.579506
 20
-8.3126259999999998
 30
0.0
 11
-14.579506
 21
-8.2282259999999994
 31
0.0
  0
LINE
  5
249
  8
0
  6
CONTINUOUS
 10
-11.099503
 20
-8.2282259999999994
 30
0.0
 11
-11.099503
 21
-8.3126259999999998
 31
0.0
  0
LINE
  5
24A
  8
0
  6
CONTINUOUS
 10
-11.159504
 20
-11.477028000000001
 30
0.0
 11
-14.519501
 21
-11.477028000000001
 31
0.0
  0
LINE
  5
24B
  8
0
  6
CONTINUOUS
 10
-14.579506
 20
-11.392227
 30
0.0
 11
-14.579506
 21
-11.275429000000001
 31
0.0
  0
LINE
  5
24C
  8
0
  6
CONTINUOUS
 10
-14.579506
 20
-11.417026999999999
 30
0.0
 11
-14.579506
 21
-11.392227
 31
0.0
  0
LINE
  5
24D
  8
0
  6
CONTINUOUS
 10
-11.099503
 20
-11.275429000000001
 30
0.0
 11
-11.099503
 21
-11.417026999999999
 31
0.0
  0
LINE
  5
24E
  8
0
  6
CONTINUOUS
 10
-14.579506
 20
-11.275429000000001
 30
0.0
 11
-14.579506
 21
-8.2082289999999993
 31
0.0
  0
LINE
  5
24F
  8
0
  6
CONTINUOUS
 10
-11.099503
 20
-8.3130259999999971
 30
0.0
 11
-11.099503
 21
-11.275429000000001
 31
0.0
  0
LINE
  5
250
  8
0
  6
CONTINUOUS
 10
-11.099503
 20
-8.2082289999999993
 30
0.0
 11
-11.099503
 21
-8.3126259999999998
 31
0.0
  0
LINE
  5
251
  8
0
  6
CONTINUOUS
 10
-11.099503
 20
-8.1782259999999987
 30
0.0
 11
-11.099503
 21
-8.2082289999999993
 31
0.0
  0
LINE
  5
252
  8
0
  6
CONTINUOUS
 10
-14.579506
 20
-8.1782259999999987
 30
0.0
 11
-11.099503
 21
-8.1782259999999987
 31
0.0
  0
LINE
  5
253
  8
0
  6
CONTINUOUS
 10
-14.579506
 20
-8.2082289999999993
 30
0.0
 11
-14.579506
 21
-8.1782259999999987
 31
0.0
  0
LINE
  5
254
  8
0
  6
CONTINUOUS
 10
-10.789501
 20
-6.1918259999999989
 30
0.0
 11
-10.789501
 21
-6.8382259999999988
 31
0.0
  0
LINE
  5
255
  8
0
  6
CONTINUOUS
 10
-14.889502999999999
 20
-6.1918259999999989
 30
0.0
 11
-14.889502999999999
 21
-6.8382259999999988
 31
0.0
  0
LINE
  5
256
  8
0
  6
CONTINUOUS
 10
-14.889502999999999
 20
-6.8382259999999988
 30
0.0
 11
-10.789501
 21
-6.8382259999999988
 31
0.0
  0
LINE
  5
257
  8
0
  6
CONTINUOUS
 10
-20.718184999999998
 20
-4.7238269999999991
 30
0.0
 11
-20.717818999999999
 21
-4.7186279999999989
 31
0.0
  0
LINE
  5
258
  8
0
  6
CONTINUOUS
 10
-4.9611019999999986
 20
-4.7186279999999989
 30
0.0
 11
-4.960704999999999
 21
-4.7238269999999991
 31
0.0
  0
LINE
  5
259
  8
0
  6
CONTINUOUS
 10
-17.799499999999998
 20
-5.5414279999999989
 30
0.0
 11
-17.799499999999998
 21
-5.8314289999999991
 31
0.0
  0
LINE
  5
25A
  8
0
  6
CONTINUOUS
 10
-7.8795009999999994
 20
-5.8314289999999991
 30
0.0
 11
-7.8795009999999994
 21
-5.5414279999999989
 31
0.0
  0
LINE
  5
25B
  8
0
  6
CONTINUOUS
 10
-7.8795009999999994
 20
-5.2966269999999991
 30
0.0
 11
-7.8795009999999994
 21
-5.5414279999999989
 31
0.0
  0
LINE
  5
25C
  8
0
  6
CONTINUOUS
 10
-17.799499999999998
 20
-5.5414279999999989
 30
0.0
 11
-17.799499999999998
 21
-5.2966269999999991
 31
0.0
  0
LINE
  5
25D
  8
0
  6
CONTINUOUS
 10
-7.8795009999999994
 20
-6.8382259999999988
 30
0.0
 11
-7.8795009999999994
 21
-5.8314289999999991
 31
0.0
  0
LINE
  5
25E
  8
0
  6
CONTINUOUS
 10
-10.739502
 20
-6.2454260000000001
 30
0.0
 11
-10.739502
 21
-6.8382259999999988
 31
0.0
  0
LINE
  5
25F
  8
0
  6
CONTINUOUS
 10
-17.799499999999998
 20
-6.8382259999999988
 30
0.0
 11
-17.799499999999998
 21
-5.8314289999999991
 31
0.0
  0
LINE
  5
260
  8
0
  6
CONTINUOUS
 10
-14.939507000000001
 20
-6.8382259999999988
 30
0.0
 11
-14.939507000000001
 21
-6.2454260000000001
 31
0.0
  0
LINE
  5
261
  8
0
  6
CONTINUOUS
 10
-16.077499
 20
-5.5414279999999989
 30
0.0
 11
-15.834702
 21
-5.8314289999999991
 31
0.0
  0
LINE
  5
262
  8
0
  6
CONTINUOUS
 10
-9.844303
 20
-5.8314289999999991
 30
0.0
 11
-9.6015009999999972
 21
-5.5414279999999989
 31
0.0
  0
LINE
  5
263
  8
0
  6
CONTINUOUS
 10
-20.518180999999998
 20
-3.239028999999999
 30
0.0
 11
-20.717818999999999
 21
-4.7186279999999989
 31
0.0
  0
LINE
  5
264
  8
0
  6
CONTINUOUS
 10
-4.9611019999999986
 20
-4.7186279999999989
 30
0.0
 11
-5.1607019999999988
 21
-3.239028999999999
 31
0.0
  0
LINE
  5
265
  8
0
  6
CONTINUOUS
 10
-10.453903
 20
-6.2454260000000001
 30
0.0
 11
-10.359104
 21
-6.2454260000000001
 31
0.0
  0
LINE
  5
266
  8
0
  6
CONTINUOUS
 10
-10.739502
 20
-6.2454260000000001
 30
0.0
 11
-10.453903
 21
-6.2454260000000001
 31
0.0
  0
LINE
  5
267
  8
0
  6
CONTINUOUS
 10
-15.225104999999999
 20
-6.2454260000000001
 30
0.0
 11
-14.939507000000001
 21
-6.2454260000000001
 31
0.0
  0
LINE
  5
268
  8
0
  6
CONTINUOUS
 10
-15.319901
 20
-6.2454260000000001
 30
0.0
 11
-15.225104999999999
 21
-6.2454260000000001
 31
0.0
  0
LINE
  5
269
  8
0
  6
CONTINUOUS
 10
-14.939507000000001
 20
-6.2454260000000001
 30
0.0
 11
-14.939507000000001
 21
-6.1918259999999989
 31
0.0
  0
LINE
  5
26A
  8
0
  6
CONTINUOUS
 10
-10.739502
 20
-6.1918259999999989
 30
0.0
 11
-14.939507000000001
 21
-6.1918259999999989
 31
0.0
  0
LINE
  5
26B
  8
0
  6
CONTINUOUS
 10
-10.739502
 20
-6.2454260000000001
 30
0.0
 11
-10.739502
 21
-6.1918259999999989
 31
0.0
  0
LINE
  5
26C
  8
0
  6
CONTINUOUS
 10
-16.239502000000002
 20
-4.9646259999999991
 30
0.0
 11
-16.239502000000002
 21
-5.2966269999999991
 31
0.0
  0
LINE
  5
26D
  8
0
  6
CONTINUOUS
 10
-16.073105000000002
 20
-4.8722269999999988
 30
0.0
 11
-15.005905
 21
-4.6406289999999988
 31
0.0
  0
LINE
  5
26E
  8
0
  6
CONTINUOUS
 10
-14.839499999999999
 20
-4.5482290000000001
 30
0.0
 11
-14.839499999999999
 21
-3.0290259999999991
 31
0.0
  0
LINE
  5
26F
  8
0
  6
CONTINUOUS
 10
-10.839504
 20
-3.0290259999999991
 30
0.0
 11
-10.839504
 21
-4.5482290000000001
 31
0.0
  0
LINE
  5
270
  8
0
  6
CONTINUOUS
 10
-10.673102999999999
 20
-4.6406289999999988
 30
0.0
 11
-9.6059039999999989
 21
-4.8722269999999988
 31
0.0
  0
LINE
  5
271
  8
0
  6
CONTINUOUS
 10
-9.4395030000000002
 20
-4.9646259999999991
 30
0.0
 11
-9.4395030000000002
 21
-5.2966269999999991
 31
0.0
  0
LINE
  5
272
  8
0
  6
CONTINUOUS
 10
-13.419502
 20
1.356573
 30
0.0
 11
-12.259501999999999
 21
1.356573
 31
0.0
  0
LINE
  5
273
  8
0
  6
CONTINUOUS
 10
-12.939503
 20
2.0965729999999989
 30
0.0
 11
-12.739502
 21
2.0965729999999989
 31
0.0
  0
LINE
  5
274
  8
0
  6
CONTINUOUS
 10
-12.739502
 20
1.496572
 30
0.0
 11
-12.939503
 21
1.496572
 31
0.0
  0
LINE
  5
275
  8
0
  6
CONTINUOUS
 10
-12.373104
 20
1.196572999999999
 30
0.0
 11
-13.305901
 21
1.196572999999999
 31
0.0
  0
LINE
  5
276
  8
0
  6
CONTINUOUS
 10
-9.8395039999999998
 20
9.7397729999999996
 30
0.0
 11
-9.8395039999999998
 21
-1.6646270000000001
 31
0.0
  0
LINE
  5
277
  8
0
  6
CONTINUOUS
 10
-15.839499999999999
 20
9.7397729999999996
 30
0.0
 11
-15.839499999999999
 21
-1.6646270000000001
 31
0.0
  0
LINE
  5
278
  8
0
  6
CONTINUOUS
 10
-12.939503
 20
1.496572
 30
0.0
 11
-12.939503
 21
1.6165729999999989
 31
0.0
  0
LINE
  5
279
  8
0
  6
CONTINUOUS
 10
-12.939503
 20
1.6165729999999989
 30
0.0
 11
-13.189507000000001
 21
1.6165729999999989
 31
0.0
  0
LINE
  5
27A
  8
0
  6
CONTINUOUS
 10
-13.189507000000001
 20
1.716572
 30
0.0
 11
-12.939503
 21
1.716572
 31
0.0
  0
LINE
  5
27B
  8
0
  6
CONTINUOUS
 10
-12.939503
 20
1.716572
 30
0.0
 11
-12.939503
 21
1.8765719999999999
 31
0.0
  0
LINE
  5
27C
  8
0
  6
CONTINUOUS
 10
-12.939503
 20
1.8765719999999999
 30
0.0
 11
-13.189507000000001
 21
1.8765719999999999
 31
0.0
  0
LINE
  5
27D
  8
0
  6
CONTINUOUS
 10
-13.189507000000001
 20
1.976572
 30
0.0
 11
-12.939503
 21
1.976572
 31
0.0
  0
LINE
  5
27E
  8
0
  6
CONTINUOUS
 10
-12.939503
 20
1.976572
 30
0.0
 11
-12.939503
 21
2.0965729999999989
 31
0.0
  0
LINE
  5
27F
  8
0
  6
CONTINUOUS
 10
-12.450302000000001
 20
1.8765719999999999
 30
0.0
 11
-11.999504
 21
1.8765719999999999
 31
0.0
  0
LINE
  5
280
  8
0
  6
CONTINUOUS
 10
-11.599503
 20
1.4765719999999991
 30
0.0
 11
-11.599503
 21
1.196572999999999
 31
0.0
  0
LINE
  5
281
  8
0
  6
CONTINUOUS
 10
-11.599503
 20
1.196572999999999
 30
0.0
 11
-11.865902
 21
1.196572999999999
 31
0.0
  0
LINE
  5
282
  8
0
  6
CONTINUOUS
 10
-13.813103
 20
1.196572999999999
 30
0.0
 11
-14.079506
 21
1.196572999999999
 31
0.0
  0
LINE
  5
283
  8
0
  6
CONTINUOUS
 10
-14.079506
 20
1.196572999999999
 30
0.0
 11
-14.079506
 21
1.4765719999999991
 31
0.0
  0
LINE
  5
284
  8
0
  6
CONTINUOUS
 10
-12.080704000000001
 20
2.0765720000000001
 30
0.0
 11
-12.327102999999999
 21
2.0765720000000001
 31
0.0
  0
LINE
  5
285
  8
0
  6
CONTINUOUS
 10
-13.919502
 20
1.4765719999999991
 30
0.0
 11
-13.919502
 21
1.356573
 31
0.0
  0
LINE
  5
286
  8
0
  6
CONTINUOUS
 10
-13.919502
 20
1.356573
 30
0.0
 11
-13.699501
 21
1.356573
 31
0.0
  0
LINE
  5
287
  8
0
  6
CONTINUOUS
 10
-11.979504
 20
1.356573
 30
0.0
 11
-11.759501999999999
 21
1.356573
 31
0.0
  0
LINE
  5
288
  8
0
  6
CONTINUOUS
 10
-11.759501999999999
 20
1.356573
 30
0.0
 11
-11.759501999999999
 21
1.4765719999999991
 31
0.0
  0
LINE
  5
289
  8
0
  6
CONTINUOUS
 10
-11.999504
 20
1.716572
 30
0.0
 11
-12.450302000000001
 21
1.716572
 31
0.0
  0
LINE
  5
28A
  8
0
  6
CONTINUOUS
 10
-7.8795009999999994
 20
-5.5106279999999987
 30
0.0
 11
-5.5607030000000002
 21
-5.5106279999999987
 31
0.0
  0
LINE
  5
28B
  8
0
  6
CONTINUOUS
 10
-20.118179000000001
 20
-5.5106279999999987
 30
0.0
 11
-17.799499999999998
 21
-5.5106279999999987
 31
0.0
  0
LINE
  5
28C
  8
0
  6
CONTINUOUS
 10
-20.718184999999998
 20
-4.7238269999999991
 30
0.0
 11
-20.718184999999998
 21
-5.2070270000000001
 31
0.0
  0
LINE
  5
28D
  8
0
  6
CONTINUOUS
 10
-4.960704999999999
 20
-5.2070270000000001
 30
0.0
 11
-4.960704999999999
 21
-4.7238269999999991
 31
0.0
  0
LINE
  5
28E
  8
0
  6
CONTINUOUS
 10
-10.739502
 20
-6.8382259999999988
 30
0.0
 11
-7.8795009999999994
 21
-6.8382259999999988
 31
0.0
  0
LINE
  5
28F
  8
0
  6
CONTINUOUS
 10
-17.799499999999998
 20
-6.8382259999999988
 30
0.0
 11
-14.939507000000001
 21
-6.8382259999999988
 31
0.0
  0
LINE
  5
290
  8
0
  6
CONTINUOUS
 10
-27.5
 20
-33.313980000000001
 30
0.0
 11
27.5
 21
-33.313980000000001
 31
0.0
  0
LINE
  5
291
  8
0
  6
CONTINUOUS
 10
27.5
 20
-33.313980000000001
 30
0.0
 11
27.5
 21
-38.313980000000001
 31
0.0
  0
LINE
  5
292
  8
0
  6
CONTINUOUS
 10
-27.5
 20
-38.313980000000001
 30
0.0
 11
27.5
 21
-38.313980000000001
 31
0.0
  0
LINE
  5
293
  8
0
  6
CONTINUOUS
 10
-17.5
 20
-33.313980000000001
 30
0.0
 11
-17.5
 21
-38.313980000000001
 31
0.0
  0
LINE
  5
294
  8
0
  6
CONTINUOUS
 10
-27.5
 20
-33.313980000000001
 30
0.0
 11
-27.5
 21
-38.313980000000001
 31
0.0
  0
LINE
  5
295
  8
0
  6
CONTINUOUS
 10
-40.0
 20
-42.5
 30
0.0
 11
40.0
 21
-42.5
 31
0.0
  0
LINE
  5
296
  8
0
  6
CONTINUOUS
 10
-30.0
 20
42.5
 30
0.0
 11
-30.0
 21
34.5
 31
0.0
  0
LINE
  5
297
  8
0
  6
CONTINUOUS
 10
-40.0
 20
34.5
 30
0.0
 11
40.0
 21
34.5
 31
0.0
  0
LINE
  5
298
  8
0
  6
CONTINUOUS
 10
-40.0
 20
42.5
 30
0.0
 11
40.0
 21
42.5
 31
0.0
  0
LINE
  5
299
  8
0
  6
CONTINUOUS
 10
-40.0
 20
42.5
 30
0.0
 11
-40.0
 21
-42.5
 31
0.0
  0
LINE
  5
29A
  8
0
  6
CONTINUOUS
 10
40.0
 20
42.5
 30
0.0
 11
40.0
 21
-42.5
 31
0.0
  0
LINE
  5
29B
  8
0
  6
CONTINUOUS
 10
-20.717865
 20
-5.2066270000000001
 30
0.0
 11
-20.692101000000001
 21
-5.3130259999999989
 31
0.0
  0
LINE
  5
29C
  8
0
  6
CONTINUOUS
 10
-20.692101000000001
 20
-5.3130259999999989
 30
0.0
 11
-20.605103
 21
-5.4086270000000001
 31
0.0
  0
LINE
  5
29D
  8
0
  6
CONTINUOUS
 10
-20.605103
 20
-5.4086270000000001
 30
0.0
 11
-20.443382
 21
-5.4758259999999996
 31
0.0
  0
LINE
  5
29E
  8
0
  6
CONTINUOUS
 10
-20.443382
 20
-5.4758259999999996
 30
0.0
 11
-20.118179000000001
 21
-5.5106279999999987
 31
0.0
  0
LINE
  5
29F
  8
0
  6
CONTINUOUS
 10
-5.5607030000000002
 20
-5.5106279999999987
 30
0.0
 11
-5.2699009999999991
 21
-5.4834290000000001
 31
0.0
  0
LINE
  5
2A0
  8
0
  6
CONTINUOUS
 10
-5.2699009999999991
 20
-5.4834290000000001
 30
0.0
 11
-5.0883029999999989
 21
-5.418228
 31
0.0
  0
LINE
  5
2A1
  8
0
  6
CONTINUOUS
 10
-5.0883029999999989
 20
-5.418228
 30
0.0
 11
-4.9911039999999991
 21
-5.3206290000000003
 31
0.0
  0
LINE
  5
2A2
  8
0
  6
CONTINUOUS
 10
-4.9911039999999991
 20
-5.3206290000000003
 30
0.0
 11
-4.9615019999999994
 21
-5.2070270000000001
 31
0.0
  0
LINE
  5
2A3
  8
0
  6
CONTINUOUS
 10
-6.257102999999999
 20
-2.396628999999999
 30
0.0
 11
-5.740302999999999
 21
-2.6254270000000002
 31
0.0
  0
LINE
  5
2A4
  8
0
  6
CONTINUOUS
 10
-5.740302999999999
 20
-2.6254270000000002
 30
0.0
 11
-5.4395030000000002
 21
-2.8222269999999998
 31
0.0
  0
LINE
  5
2A5
  8
0
  6
CONTINUOUS
 10
-5.4395030000000002
 20
-2.8222269999999998
 30
0.0
 11
-5.2835039999999989
 21
-2.9758259999999992
 31
0.0
  0
LINE
  5
2A6
  8
0
  6
CONTINUOUS
 10
-5.2835039999999989
 20
-2.9758259999999992
 30
0.0
 11
-5.1891020000000001
 21
-3.1330259999999992
 31
0.0
  0
LINE
  5
2A7
  8
0
  6
CONTINUOUS
 10
-5.1891020000000001
 20
-3.1330259999999992
 30
0.0
 11
-5.1607019999999988
 21
-3.239028999999999
 31
0.0
  0
LINE
  5
2A8
  8
0
  6
CONTINUOUS
 10
-20.518180999999998
 20
-3.239028999999999
 30
0.0
 11
-20.465340000000001
 21
-3.0806269999999998
 31
0.0
  0
LINE
  5
2A9
  8
0
  6
CONTINUOUS
 10
-20.465340000000001
 20
-3.0806269999999998
 30
0.0
 11
-20.350266000000001
 21
-2.924229
 31
0.0
  0
LINE
  5
2AA
  8
0
  6
CONTINUOUS
 10
-20.350266000000001
 20
-2.924229
 30
0.0
 11
-20.102104000000001
 21
-2.722229
 31
0.0
  0
LINE
  5
2AB
  8
0
  6
CONTINUOUS
 10
-20.102104000000001
 20
-2.722229
 30
0.0
 11
-19.750098999999999
 21
-2.5310290000000002
 31
0.0
  0
LINE
  5
2AC
  8
0
  6
CONTINUOUS
 10
-19.750098999999999
 20
-2.5310290000000002
 30
0.0
 11
-19.421783000000001
 21
-2.396628999999999
 31
0.0
  0
LINE
  5
2AD
  8
0
  6
CONTINUOUS
 10
-10.979504
 20
-8.0982280000000006
 30
0.0
 11
-11.039501
 21
-8.1582259999999991
 31
0.0
  0
LINE
  5
2AE
  8
0
  6
CONTINUOUS
 10
-14.699501
 20
-8.0982280000000006
 30
0.0
 11
-14.639502999999999
 21
-8.1582259999999991
 31
0.0
  0
LINE
  5
2AF
  8
0
  6
CONTINUOUS
 10
-12.839504
 20
-2.242626
 30
0.0
 11
-14.198302999999999
 21
-2.2730290000000002
 31
0.0
  0
LINE
  5
2B0
  8
0
  6
CONTINUOUS
 10
-14.198302999999999
 20
-2.2730290000000002
 30
0.0
 11
-15.516304
 21
-2.3642270000000001
 31
0.0
  0
LINE
  5
2B1
  8
0
  6
CONTINUOUS
 10
-15.516304
 20
-2.3642270000000001
 30
0.0
 11
-16.753502000000001
 21
-2.5126270000000002
 31
0.0
  0
LINE
  5
2B2
  8
0
  6
CONTINUOUS
 10
-16.753502000000001
 20
-2.5126270000000002
 30
0.0
 11
-17.872826
 21
-2.714226
 31
0.0
  0
LINE
  5
2B3
  8
0
  6
CONTINUOUS
 10
-17.872826
 20
-2.714226
 30
0.0
 11
-18.691185000000001
 21
-2.9186290000000001
 31
0.0
  0
LINE
  5
2B4
  8
0
  6
CONTINUOUS
 10
-18.691185000000001
 20
-2.9186290000000001
 30
0.0
 11
-19.258461
 21
-3.1030269999999991
 31
0.0
  0
LINE
  5
2B5
  8
0
  6
CONTINUOUS
 10
-6.4207039999999989
 20
-3.1030269999999991
 30
0.0
 11
-7.1419030000000001
 21
-2.8754270000000002
 31
0.0
  0
LINE
  5
2B6
  8
0
  6
CONTINUOUS
 10
-7.1419030000000001
 20
-2.8754270000000002
 30
0.0
 11
-7.9827039999999991
 21
-2.6774290000000001
 31
0.0
  0
LINE
  5
2B7
  8
0
  6
CONTINUOUS
 10
-7.9827039999999991
 20
-2.6774290000000001
 30
0.0
 11
-9.123901
 21
-2.484226
 31
0.0
  0
LINE
  5
2B8
  8
0
  6
CONTINUOUS
 10
-9.123901
 20
-2.484226
 30
0.0
 11
-10.377102000000001
 21
-2.3450279999999988
 31
0.0
  0
LINE
  5
2B9
  8
0
  6
CONTINUOUS
 10
-10.377102000000001
 20
-2.3450279999999988
 30
0.0
 11
-11.704304
 21
-2.2638279999999988
 31
0.0
  0
LINE
  5
2BA
  8
0
  6
CONTINUOUS
 10
-11.704304
 20
-2.2638279999999988
 30
0.0
 11
-12.838303
 21
-2.242626
 31
0.0
  0
LINE
  5
2BB
  8
0
  6
CONTINUOUS
 10
-19.258461
 20
-3.1030269999999991
 30
0.0
 11
-19.758140999999998
 21
-3.3238259999999999
 31
0.0
  0
LINE
  5
2BC
  8
0
  6
CONTINUOUS
 10
-19.758140999999998
 20
-3.3238259999999999
 30
0.0
 11
-20.048904
 21
-3.5142289999999998
 31
0.0
  0
LINE
  5
2BD
  8
0
  6
CONTINUOUS
 10
-20.048904
 20
-3.5142289999999998
 30
0.0
 11
-20.199698999999999
 21
-3.6626279999999989
 31
0.0
  0
LINE
  5
2BE
  8
0
  6
CONTINUOUS
 10
-20.199698999999999
 20
-3.6626279999999989
 30
0.0
 11
-20.290984999999999
 21
-3.814629
 31
0.0
  0
LINE
  5
2BF
  8
0
  6
CONTINUOUS
 10
-20.290984999999999
 20
-3.814629
 30
0.0
 11
-20.318306
 21
-3.9166259999999999
 31
0.0
  0
LINE
  5
2C0
  8
0
  6
CONTINUOUS
 10
-5.3607029999999991
 20
-3.9166259999999999
 30
0.0
 11
-5.4119029999999988
 21
-3.7638279999999988
 31
0.0
  0
LINE
  5
2C1
  8
0
  6
CONTINUOUS
 10
-5.4119029999999988
 20
-3.7638279999999988
 30
0.0
 11
-5.5231019999999988
 21
-3.6126290000000001
 31
0.0
  0
LINE
  5
2C2
  8
0
  6
CONTINUOUS
 10
-5.5231019999999988
 20
-3.6126290000000001
 30
0.0
 11
-5.7631030000000001
 21
-3.4174269999999991
 31
0.0
  0
LINE
  5
2C3
  8
0
  6
CONTINUOUS
 10
-5.7631030000000001
 20
-3.4174269999999991
 30
0.0
 11
-6.1031040000000001
 21
-3.2326280000000001
 31
0.0
  0
LINE
  5
2C4
  8
0
  6
CONTINUOUS
 10
-6.1031040000000001
 20
-3.2326280000000001
 30
0.0
 11
-6.4207039999999989
 21
-3.1030269999999991
 31
0.0
  0
LINE
  5
2C5
  8
0
  6
CONTINUOUS
 10
7.0100979999999993
 20
10.302172000000001
 30
0.0
 11
15.023296
 21
11.714971999999999
 31
0.0
  0
LINE
  5
2C6
  8
0
  6
CONTINUOUS
 10
14.053299000000001
 20
-3.7098269999999989
 30
0.0
 11
7.0788960000000003
 21
-1.8410259999999989
 31
0.0
  0
TEXT
  5
2C7
  8
0
 10
23.249023000000001
 20
-41.260300000000001
 30
0.0
 40
2.0
  1
ＷＫ４322Ｑ
 41
0.7690000000000001
  0
TEXT
  5
2C8
  8
0
 10
-17.079467999999999
 20
-37.313980000000001
 30
0.0
 40
3.0
  1
20A 250V
 41
0.897
  0
TEXT
  5
2C9
  8
0
 10
-25.928574000000001
 20
-37.313980000000001
 30
0.0
 40
3.0
  1
定 格
 41
0.857
  0
TEXT
  5
2CA
  8
0
 10
-29.068252999999999
 20
38.876117999999998
 30
0.0
 40
3.0
  1
ＥＶ・ＰＨＥＶ充電用　15Ａ・20Ａ兼用接地屋外ｺﾝｾﾝﾄ
 41
0.751
  0
TEXT
  5
2CB
  8
0
 10
-30.281586000000001
 20
35.080894000000001
 30
0.0
 40
3.0
  1
（露出･埋込両用）（200Ｖ用）（シャンパンブロンズ）
 41
0.744
  0
TEXT
  5
2CC
  8
0
 10
-9.9545169999999992
 20
-8.2867130000000007
 30
0.0
 40
0.5
  1
品番　ＷＫ4322
 41
0.9
  0
TEXT
  5
2CD
  8
0
 10
-14.007263
 20
-0.533428
 30
0.0
 40
0.5
  1
200Ｖ用
 41
0.9869999999999999
  0
TEXT
  5
2CE
  8
0
 10
-9.9435999999999982
 20
-9.2804789999999997
 30
0.0
 40
0.5
  1
20Ａ　250Ｖ　防雨形
 41
0.6530000000000001
  0
TEXT
  5
2CF
  8
0
 10
-14.571486999999999
 20
7.9161720000000004
 30
0.0
 40
0.5
  1
Ｐａｎａｓｏｎｉｃ
 41
0.638
  0
LINE
  5
2D0
  8
0
  6
CONTINUOUS
 10
-4.1395029999999986
 20
-17.998764000000001
 30
0.0
 11
-21.539504999999998
 21
-17.998764000000001
 31
0.0
  0
LINE
  5
2D1
  8
0
  6
CONTINUOUS
 10
-4.1395029999999986
 20
-12.258228000000001
 30
0.0
 11
-4.1395029999999986
 21
-18.998764000000001
 31
0.0
  0
LINE
  5
2D2
  8
0
  6
CONTINUOUS
 10
-21.539504999999998
 20
-12.258228000000001
 30
0.0
 11
-21.539504999999998
 21
-18.998764000000001
 31
0.0
  0
LINE
  5
2D3
  8
0
  6
CONTINUOUS
 10
1.3508340000000001
 20
12.741771999999999
 30
0.0
 11
1.3508340000000001
 21
-12.458228999999999
 31
0.0
  0
LINE
  5
2D4
  8
0
  6
CONTINUOUS
 10
-4.3395039999999989
 20
12.741771999999999
 30
0.0
 11
2.350833999999999
 21
12.741771999999999
 31
0.0
  0
LINE
  5
2D5
  8
0
  6
CONTINUOUS
 10
-4.748702999999999
 20
-12.458228999999999
 30
0.0
 11
2.350833999999999
 21
-12.458228999999999
 31
0.0
  0
LINE
  5
2D6
  8
0
  6
CONTINUOUS
 10
6.8448979999999988
 20
15.967129
 30
0.0
 11
22.444897000000001
 21
15.967129
 31
0.0
  0
LINE
  5
2D7
  8
0
  6
CONTINUOUS
 10
6.8448979999999988
 20
10.105371
 30
0.0
 11
6.8448979999999988
 21
16.967129
 31
0.0
  0
LINE
  5
2D8
  8
0
  6
CONTINUOUS
 10
22.444897000000001
 20
12.041772999999999
 30
0.0
 11
22.444897000000001
 21
16.967129
 31
0.0
  0
LINE
  5
2D9
  8
0
  6
CONTINUOUS
 10
22.444897000000001
 20
-17.815037
 30
0.0
 11
5.522098999999999
 21
-17.815037
 31
0.0
  0
LINE
  5
2DA
  8
0
  6
CONTINUOUS
 10
22.444897000000001
 20
-11.758228000000001
 30
0.0
 11
22.444897000000001
 21
-18.815037
 31
0.0
  0
LINE
  5
2DB
  8
0
  6
CONTINUOUS
 10
5.522098999999999
 20
-2.0494270000000001
 30
0.0
 11
5.522098999999999
 21
-18.815037
 31
0.0
  0
TEXT
  5
2DC
  8
0
 10
9.5030669999999997
 20
-17.180038
 30
0.0
 40
2.5
  1
84.6
 41
1.1999999999999991
  0
LINE
  5
2DD
  8
0
  6
CONTINUOUS
 10
7.0220989999999999
 20
-18.065037
 30
0.0
 11
5.522098999999999
 21
-17.815037
 31
0.0
  0
LINE
  5
2DE
  8
0
  6
CONTINUOUS
 10
5.522098999999999
 20
-17.815037
 30
0.0
 11
7.0220989999999999
 21
-17.565037
 31
0.0
  0
LINE
  5
2DF
  8
0
  6
CONTINUOUS
 10
5.522098999999999
 20
-17.815037
 30
0.0
 11
7.0220989999999999
 21
-17.815037
 31
0.0
  0
LINE
  5
2E0
  8
0
  6
CONTINUOUS
 10
20.944897000000001
 20
-17.565037
 30
0.0
 11
22.444897000000001
 21
-17.815037
 31
0.0
  0
LINE
  5
2E1
  8
0
  6
CONTINUOUS
 10
22.444897000000001
 20
-17.815037
 30
0.0
 11
20.944897000000001
 21
-18.065037
 31
0.0
  0
LINE
  5
2E2
  8
0
  6
CONTINUOUS
 10
22.444897000000001
 20
-17.815037
 30
0.0
 11
20.944897000000001
 21
-17.815037
 31
0.0
  0
TEXT
  5
2E3
  8
0
 10
12.034824
 20
16.602129000000001
 30
0.0
 40
2.5
  1
78
  0
LINE
  5
2E4
  8
0
  6
CONTINUOUS
 10
20.944897000000001
 20
16.217130999999998
 30
0.0
 11
22.444897000000001
 21
15.967129
 31
0.0
  0
LINE
  5
2E5
  8
0
  6
CONTINUOUS
 10
22.444897000000001
 20
15.967129
 30
0.0
 11
20.944897000000001
 21
15.717129
 31
0.0
  0
LINE
  5
2E6
  8
0
  6
CONTINUOUS
 10
22.444897000000001
 20
15.967129
 30
0.0
 11
20.944897000000001
 21
15.967129
 31
0.0
  0
LINE
  5
2E7
  8
0
  6
CONTINUOUS
 10
8.3448979999999988
 20
15.717129
 30
0.0
 11
6.8448979999999988
 21
15.967129
 31
0.0
  0
LINE
  5
2E8
  8
0
  6
CONTINUOUS
 10
6.8448979999999988
 20
15.967129
 30
0.0
 11
8.3448979999999988
 21
16.217130999999998
 31
0.0
  0
LINE
  5
2E9
  8
0
  6
CONTINUOUS
 10
6.8448979999999988
 20
15.967129
 30
0.0
 11
8.3448979999999988
 21
15.967129
 31
0.0
  0
TEXT
  5
2EA
  8
0
 10
0.715836
 20
-3.6219179999999991
 30
0.0
 40
2.5
  1
126
 50
90.0
 41
1.1000000000000001
  0
LINE
  5
2EB
  8
0
  6
CONTINUOUS
 10
1.6008340000000001
 20
-10.958228999999999
 30
0.0
 11
1.3508340000000001
 21
-12.458228999999999
 31
0.0
  0
LINE
  5
2EC
  8
0
  6
CONTINUOUS
 10
1.3508340000000001
 20
-12.458228999999999
 30
0.0
 11
1.1008340000000001
 21
-10.958228999999999
 31
0.0
  0
LINE
  5
2ED
  8
0
  6
CONTINUOUS
 10
1.3508340000000001
 20
-12.458228999999999
 30
0.0
 11
1.3508340000000001
 21
-10.958228999999999
 31
0.0
  0
LINE
  5
2EE
  8
0
  6
CONTINUOUS
 10
1.1008340000000001
 20
11.241771999999999
 30
0.0
 11
1.3508340000000001
 21
12.741771999999999
 31
0.0
  0
LINE
  5
2EF
  8
0
  6
CONTINUOUS
 10
1.3508340000000001
 20
12.741771999999999
 30
0.0
 11
1.6008340000000001
 21
11.241771999999999
 31
0.0
  0
LINE
  5
2F0
  8
0
  6
CONTINUOUS
 10
1.3508340000000001
 20
12.741771999999999
 30
0.0
 11
1.3508340000000001
 21
11.241771999999999
 31
0.0
  0
TEXT
  5
2F1
  8
0
 10
-14.945175000000001
 20
-17.363762000000001
 30
0.0
 40
2.5
  1
87
  0
LINE
  5
2F2
  8
0
  6
CONTINUOUS
 10
-20.039504999999998
 20
-18.248764000000001
 30
0.0
 11
-21.539504999999998
 21
-17.998764000000001
 31
0.0
  0
LINE
  5
2F3
  8
0
  6
CONTINUOUS
 10
-21.539504999999998
 20
-17.998764000000001
 30
0.0
 11
-20.039504999999998
 21
-17.748764000000001
 31
0.0
  0
LINE
  5
2F4
  8
0
  6
CONTINUOUS
 10
-21.539504999999998
 20
-17.998764000000001
 30
0.0
 11
-20.039504999999998
 21
-17.998764000000001
 31
0.0
  0
LINE
  5
2F5
  8
0
  6
CONTINUOUS
 10
-5.6395029999999986
 20
-17.748764000000001
 30
0.0
 11
-4.1395029999999986
 21
-17.998764000000001
 31
0.0
  0
LINE
  5
2F6
  8
0
  6
CONTINUOUS
 10
-4.1395029999999986
 20
-17.998764000000001
 30
0.0
 11
-5.6395029999999986
 21
-18.248764000000001
 31
0.0
  0
LINE
  5
2F7
  8
0
  6
CONTINUOUS
 10
-4.1395029999999986
 20
-17.998764000000001
 30
0.0
 11
-5.6395029999999986
 21
-17.998764000000001
 31
0.0
  0
ENDSEC
  0
EOF
