  0
SECTION
  2
HEADER
  9
$EXTMIN
 10
-45.000000
 20
-45.000000
  9
$EXTMAX
 10
45.000000
 20
45.000000
  0
ENDSEC
  0
SECTION
  2
TABLES
  0
TABLE
  2
LTYPE
 70
     5
  0
LTYPE
  2
CONTINUOUS
 70
    64
  3
実線
 72
    65
 73
     0
 40
0.0
  0
LTYPE
  2
HIDDEN
 70
    64
  3
_ _ _ _ _ _ _ _ _ _ _ _ _ _ _ _ _ _ _ _ _ _ _
 72
    65
 73
     2
 40
0.375
 49
0.25
 49
-0.125
  0
LTYPE
  2
CENTER
 70
    64
  3
____ _ ____ _ ____ _ ____ _ ____ _ ____ _ ____
 72
    65
 73
     4
 40
2.0
 49
1.25
 49
-0.25
 49
0.25
 49
-0.25
  0
LTYPE
  2
PHANTOM
 70
    64
  3
_____ _ _ _____ _ _ _____ _ _ _____ _ _ ____
 72
    65
 73
     6
 40
2.5
 49
1.25
 49
-0.25
 49
0.25
 49
-0.25
 49
0.25
 49
-0.25
  0
LTYPE
  2
DASHED
 70
    64
  3
__ __ __ __ __ __ __ __ __ __ __ __ __ __ __
 72
    65
 73
     2
 40
0.75
 49
0.5
 49
-0.25
  0
ENDTAB
  0
TABLE
  2
LAYER
 70
     1
  0
LAYER
  2
0
 70
     0
 62
     7
  6
CONTINUOUS
  0
ENDTAB
  0
TABLE
  2
STYLE
 70
     1
  0
STYLE
  2
STANDARD
 70
    64
 40
2.0
 41
1.0
 50
0.0
 71
     0
 42
2.0
  3
txt
  4
bigfont
  0
ENDTAB
  0
ENDSEC
  0
SECTION
  2
BLOCKS
  0
ENDSEC
  0
SECTION
  2
ENTITIES
  0
LINE
  8
0
  6
CONTINUOUS
 10
-17.581800
 20
14.518902
 11
-17.954500
 21
14.669102
  0
LINE
  8
0
  6
CONTINUOUS
 10
-17.954500
 20
14.669102
 11
-18.243700
 21
14.874199
  0
LINE
  8
0
  6
CONTINUOUS
 10
-18.243700
 20
14.874199
 11
-18.494101
 21
15.148201
  0
LINE
  8
0
  6
CONTINUOUS
 10
-18.494101
 20
15.148201
 11
-18.660999
 21
15.442200
  0
LINE
  8
0
  6
CONTINUOUS
 10
-18.660999
 20
15.442200
 11
-18.750099
 21
15.687599
  0
LINE
  8
0
  6
CONTINUOUS
 10
-16.767900
 20
-12.332001
 11
-16.857100
 21
-12.448000
  0
LINE
  8
0
  6
CONTINUOUS
 10
-16.857100
 20
-12.448000
 11
-16.987101
 21
-12.500500
  0
LINE
  8
0
  6
CONTINUOUS
 10
-16.987101
 20
-12.500500
 11
-17.028900
 21
-12.503901
  0
LINE
  8
0
  6
CONTINUOUS
 10
-17.022800
 20
-11.953699
 11
-16.881901
 21
-11.992701
  0
LINE
  8
0
  6
CONTINUOUS
 10
-16.881901
 20
-11.992701
 11
-16.783199
 21
-12.094900
  0
LINE
  8
0
  6
CONTINUOUS
 10
-16.783199
 20
-12.094900
 11
-16.774799
 21
-12.113001
  0
LINE
  8
0
  6
CONTINUOUS
 10
-16.097799
 20
-12.228701
 11
-15.924500
 21
-12.268101
  0
LINE
  8
0
  6
CONTINUOUS
 10
-15.924500
 20
-12.268101
 11
-15.786400
 21
-12.377701
  0
LINE
  8
0
  6
CONTINUOUS
 10
-15.786400
 20
-12.377701
 11
-15.708599
 21
-12.535200
  0
LINE
  8
0
  6
CONTINUOUS
 10
-15.708599
 20
-12.535200
 11
-15.697500
 21
-12.634300
  0
LINE
  8
0
  6
CONTINUOUS
 10
-16.017000
 20
-12.928101
 11
-16.124399
 21
-13.024401
  0
LINE
  8
0
  6
CONTINUOUS
 10
-16.124399
 20
-13.024401
 11
-16.268000
 21
-13.052999
  0
LINE
  8
0
  6
CONTINUOUS
 10
-16.268000
 20
-13.052999
 11
-16.408199
 21
-13.002600
  0
LINE
  8
0
  6
CONTINUOUS
 10
-16.408199
 20
-13.002600
 11
-16.474501
 21
-12.933300
  0
LINE
  8
0
  6
CONTINUOUS
 10
-17.817200
 20
-12.928200
 11
-17.924400
 21
-13.024401
  0
LINE
  8
0
  6
CONTINUOUS
 10
-17.924400
 20
-13.024401
 11
-18.067801
 21
-13.052999
  0
LINE
  8
0
  6
CONTINUOUS
 10
-18.067801
 20
-13.052999
 11
-18.208000
 21
-13.002701
  0
LINE
  8
0
  6
CONTINUOUS
 10
-18.208000
 20
-13.002701
 11
-18.283501
 21
-12.920700
  0
LINE
  8
0
  6
CONTINUOUS
 10
-18.597900
 20
-12.634899
 11
-18.558599
 21
-12.438700
  0
LINE
  8
0
  6
CONTINUOUS
 10
-18.558599
 20
-12.438700
 11
-18.444300
 21
-12.279200
  0
LINE
  8
0
  6
CONTINUOUS
 10
-18.444300
 20
-12.279200
 11
-18.281601
 21
-12.181000
  0
LINE
  8
0
  6
CONTINUOUS
 10
-18.281601
 20
-12.181000
 11
-18.261101
 21
-12.174601
  0
LINE
  8
0
  6
CONTINUOUS
 10
-18.166599
 20
-12.124100
 11
-17.906000
 21
-11.841200
  0
LINE
  8
0
  6
CONTINUOUS
 10
-17.906000
 20
-11.841200
 11
-17.657400
 21
-11.688801
  0
LINE
  8
0
  6
CONTINUOUS
 10
-17.657400
 20
-11.688801
 11
-17.353800
 21
-11.596500
  0
LINE
  8
0
  6
CONTINUOUS
 10
-17.353800
 20
-11.596500
 11
-17.046200
 21
-11.583000
  0
LINE
  8
0
  6
CONTINUOUS
 10
-17.046200
 20
-11.583000
 11
-16.740499
 21
-11.648399
  0
LINE
  8
0
  6
CONTINUOUS
 10
-16.740499
 20
-11.648399
 11
-16.466801
 21
-11.784401
  0
LINE
  8
0
  6
CONTINUOUS
 10
-16.466801
 20
-11.784401
 11
-16.346201
 21
-11.878700
  0
LINE
  8
0
  6
CONTINUOUS
 10
-19.884600
 20
15.915100
 11
-19.847300
 21
15.770302
  0
LINE
  8
0
  6
CONTINUOUS
 10
-19.847300
 20
15.770302
 11
-19.745001
 21
15.663101
  0
LINE
  8
0
  6
CONTINUOUS
 10
-19.745001
 20
15.663101
 11
-19.604300
 21
15.621399
  0
LINE
  8
0
  6
CONTINUOUS
 10
-19.604300
 20
15.621399
 11
-19.461800
 21
15.655998
  0
LINE
  8
0
  6
CONTINUOUS
 10
-19.461800
 20
15.655998
 11
-19.354500
 21
15.757900
  0
LINE
  8
0
  6
CONTINUOUS
 10
-19.354500
 20
15.757900
 11
-19.310301
 21
15.900600
  0
LINE
  8
0
  6
CONTINUOUS
 10
-19.310301
 20
15.900600
 11
-19.309900
 21
15.915100
  0
LINE
  8
0
  6
CONTINUOUS
 10
-19.472401
 20
16.352600
 11
-19.509001
 21
16.454201
  0
LINE
  8
0
  6
CONTINUOUS
 10
-19.509001
 20
16.454201
 11
-19.591200
 21
16.496101
  0
LINE
  8
0
  6
CONTINUOUS
 10
-19.591200
 20
16.496101
 11
-19.676600
 21
16.463699
  0
LINE
  8
0
  6
CONTINUOUS
 10
-19.676600
 20
16.463699
 11
-19.721600
 21
16.366600
  0
LINE
  8
0
  6
CONTINUOUS
 10
-19.721600
 20
16.366600
 11
-19.722200
 21
16.352600
  0
LINE
  8
0
  6
CONTINUOUS
 10
-16.922800
 20
17.095699
 11
-16.922501
 21
17.223598
  0
LINE
  8
0
  6
CONTINUOUS
 10
-13.540400
 20
-16.797300
 11
-13.423000
 21
-16.723900
  0
LINE
  8
0
  6
CONTINUOUS
 10
-13.423000
 20
-16.723900
 11
-13.363300
 21
-16.601700
  0
LINE
  8
0
  6
CONTINUOUS
 10
-13.363300
 20
-16.601700
 11
-13.358700
 21
-16.556601
  0
LINE
  8
0
  6
CONTINUOUS
 10
6.520000
 20
17.689499
 11
5.914501
 21
17.868698
  0
LINE
  8
0
  6
CONTINUOUS
 10
6.520000
 20
17.689499
 11
6.576698
 21
17.614101
  0
LINE
  8
0
  6
CONTINUOUS
 10
6.576698
 20
17.614101
 11
6.603199
 21
17.440800
  0
LINE
  8
0
  6
CONTINUOUS
 10
6.603199
 20
-16.556601
 11
6.568699
 21
-16.749701
  0
LINE
  8
0
  6
CONTINUOUS
 10
6.568699
 20
-16.749701
 11
6.515701
 21
-16.804501
  0
LINE
  8
0
  6
CONTINUOUS
 10
6.515701
 20
-16.804501
 11
6.501999
 21
-16.805401
  0
LINE
  8
0
  6
CONTINUOUS
 10
5.911598
 20
-16.630699
 11
6.501999
 21
-16.805401
  0
LINE
  8
0
  6
CONTINUOUS
 10
22.033001
 20
11.253101
 11
21.997101
 21
11.851601
  0
LINE
  8
0
  6
CONTINUOUS
 10
21.997101
 20
11.851601
 11
21.889702
 21
12.441601
  0
LINE
  8
0
  6
CONTINUOUS
 10
21.889702
 20
12.441601
 11
21.712601
 21
13.014400
  0
LINE
  8
0
  6
CONTINUOUS
 10
21.712601
 20
13.014400
 11
21.468102
 21
13.561901
  0
LINE
  8
0
  6
CONTINUOUS
 10
21.468102
 20
13.561901
 11
21.159901
 21
14.076199
  0
LINE
  8
0
  6
CONTINUOUS
 10
21.159901
 20
14.076199
 11
20.792301
 21
14.549900
  0
LINE
  8
0
  6
CONTINUOUS
 10
20.792301
 20
14.549900
 11
20.370701
 21
14.976101
  0
LINE
  8
0
  6
CONTINUOUS
 10
20.370701
 20
14.976101
 11
19.901001
 21
15.348900
  0
LINE
  8
0
  6
CONTINUOUS
 10
19.901001
 20
15.348900
 11
19.390202
 21
15.662701
  0
LINE
  8
0
  6
CONTINUOUS
 10
19.390202
 20
15.662701
 11
18.845402
 21
15.913200
  0
LINE
  8
0
  6
CONTINUOUS
 10
18.845402
 20
15.913200
 11
18.274601
 21
16.096600
  0
LINE
  8
0
  6
CONTINUOUS
 10
18.274601
 20
16.096600
 11
17.901600
 21
16.177200
  0
LINE
  8
0
  6
CONTINUOUS
 10
20.495602
 20
-16.591200
 11
20.460602
 21
-16.355301
  0
LINE
  8
0
  6
CONTINUOUS
 10
20.460602
 20
-16.355301
 11
20.358700
 21
-16.139799
  0
LINE
  8
0
  6
CONTINUOUS
 10
20.358700
 20
-16.139799
 11
20.198601
 21
-15.963100
  0
LINE
  8
0
  6
CONTINUOUS
 10
20.198601
 20
-15.963100
 11
19.994099
 21
-15.840500
  0
LINE
  8
0
  6
CONTINUOUS
 10
19.994099
 20
-15.840500
 11
19.762798
 21
-15.782600
  0
LINE
  8
0
  6
CONTINUOUS
 10
19.762798
 20
-15.782600
 11
19.524700
 21
-15.794300
  0
LINE
  8
0
  6
CONTINUOUS
 10
19.524700
 20
-15.794300
 11
19.300201
 21
-15.874599
  0
LINE
  8
0
  6
CONTINUOUS
 10
19.300201
 20
-15.874599
 11
19.108700
 21
-16.016701
  0
LINE
  8
0
  6
CONTINUOUS
 10
19.108700
 20
-16.016701
 11
18.966702
 21
-16.208200
  0
LINE
  8
0
  6
CONTINUOUS
 10
18.966702
 20
-16.208200
 11
18.886398
 21
-16.432699
  0
LINE
  8
0
  6
CONTINUOUS
 10
18.886398
 20
-16.432699
 11
18.870701
 21
-16.591200
  0
LINE
  8
0
  6
CONTINUOUS
 10
18.870701
 20
-17.966200
 11
18.905701
 21
-18.202101
  0
LINE
  8
0
  6
CONTINUOUS
 10
18.905701
 20
-18.202101
 11
19.007702
 21
-18.417601
  0
LINE
  8
0
  6
CONTINUOUS
 10
19.007702
 20
-18.417601
 11
19.167801
 21
-18.594299
  0
LINE
  8
0
  6
CONTINUOUS
 10
19.167801
 20
-18.594299
 11
19.372299
 21
-18.716900
  0
LINE
  8
0
  6
CONTINUOUS
 10
19.372299
 20
-18.716900
 11
19.603500
 21
-18.774799
  0
LINE
  8
0
  6
CONTINUOUS
 10
19.603500
 20
-18.774799
 11
19.841702
 21
-18.763100
  0
LINE
  8
0
  6
CONTINUOUS
 10
19.841702
 20
-18.763100
 11
20.066200
 21
-18.682800
  0
LINE
  8
0
  6
CONTINUOUS
 10
20.066200
 20
-18.682800
 11
20.257702
 21
-18.540701
  0
LINE
  8
0
  6
CONTINUOUS
 10
20.257702
 20
-18.540701
 11
20.399700
 21
-18.349199
  0
LINE
  8
0
  6
CONTINUOUS
 10
20.399700
 20
-18.349199
 11
20.480000
 21
-18.124701
  0
LINE
  8
0
  6
CONTINUOUS
 10
20.480000
 20
-18.124701
 11
20.495602
 21
-17.966200
  0
LINE
  8
0
  6
CONTINUOUS
 10
22.033798
 20
-20.485500
 11
22.034901
 21
-20.998501
  0
LINE
  8
0
  6
CONTINUOUS
 10
22.033001
 20
4.746300
 11
21.995300
 21
4.835800
  0
LINE
  8
0
  6
CONTINUOUS
 10
21.995300
 20
4.835800
 11
21.908001
 21
4.871300
  0
LINE
  8
0
  6
CONTINUOUS
 10
21.908001
 20
-12.628700
 11
21.997501
 21
-12.591000
  0
LINE
  8
0
  6
CONTINUOUS
 10
21.997501
 20
-12.591000
 11
22.033001
 21
-12.503700
  0
LINE
  8
0
  6
CONTINUOUS
 10
5.962799
 20
-16.580900
 11
6.562099
 21
-16.757099
  0
LINE
  8
0
  6
CONTINUOUS
 10
5.908901
 20
-16.939301
 11
5.935501
 21
-17.051800
  0
LINE
  8
0
  6
CONTINUOUS
 10
5.935501
 20
-17.051800
 11
6.031700
 21
-17.151400
  0
LINE
  8
0
  6
CONTINUOUS
 10
6.031700
 20
-17.151400
 11
6.063099
 21
-17.166599
  0
LINE
  8
0
  6
CONTINUOUS
 10
-27.636501
 20
23.715897
 11
-27.552900
 21
23.629898
  0
LINE
  8
0
  6
CONTINUOUS
 10
-27.552900
 20
23.629898
 11
-27.313499
 21
23.524101
  0
LINE
  8
0
  6
CONTINUOUS
 10
-27.313499
 20
23.524101
 11
-26.733400
 21
23.381798
  0
LINE
  8
0
  6
CONTINUOUS
 10
-26.733400
 20
23.381798
 11
-25.740400
 21
23.231796
  0
LINE
  8
0
  6
CONTINUOUS
 10
-25.740400
 20
23.231796
 11
-24.059200
 21
23.071701
  0
LINE
  8
0
  6
CONTINUOUS
 10
-24.059200
 20
23.071701
 11
-21.755100
 21
22.940498
  0
LINE
  8
0
  6
CONTINUOUS
 10
-21.755100
 20
22.940498
 11
-18.881800
 21
22.861298
  0
LINE
  8
0
  6
CONTINUOUS
 10
-18.881800
 20
22.861298
 11
-15.863501
 21
22.855202
  0
LINE
  8
0
  6
CONTINUOUS
 10
-15.863501
 20
22.855202
 11
-12.948999
 21
22.922401
  0
LINE
  8
0
  6
CONTINUOUS
 10
-12.948999
 20
22.922401
 11
-10.573900
 21
23.043999
  0
LINE
  8
0
  6
CONTINUOUS
 10
-10.573900
 20
23.043999
 11
-8.804701
 21
23.197098
  0
LINE
  8
0
  6
CONTINUOUS
 10
-8.804701
 20
23.197098
 11
-7.617699
 21
23.362198
  0
LINE
  8
0
  6
CONTINUOUS
 10
-7.617699
 20
23.362198
 11
-6.997700
 21
23.503304
  0
LINE
  8
0
  6
CONTINUOUS
 10
-6.997700
 20
23.503304
 11
-6.728699
 21
23.608597
  0
LINE
  8
0
  6
CONTINUOUS
 10
-6.728699
 20
23.608597
 11
-6.620998
 21
23.694298
  0
LINE
  8
0
  6
CONTINUOUS
 10
-6.620998
 20
23.694298
 11
-6.609200
 21
23.715897
  0
LINE
  8
0
  6
CONTINUOUS
 10
-6.495701
 20
-22.628700
 11
-6.365501
 21
-22.590700
  0
LINE
  8
0
  6
CONTINUOUS
 10
-6.365501
 20
-22.590700
 11
-6.272900
 21
-22.484900
  0
LINE
  8
0
  6
CONTINUOUS
 10
-6.272900
 20
-22.484900
 11
-6.247799
 21
-22.372200
  0
LINE
  8
0
  6
CONTINUOUS
 10
-27.997799
 20
-22.372200
 11
-27.959499
 21
-22.509600
  0
LINE
  8
0
  6
CONTINUOUS
 10
-27.959499
 20
-22.509600
 11
-27.858799
 21
-22.602800
  0
LINE
  8
0
  6
CONTINUOUS
 10
-27.858799
 20
-22.602800
 11
-27.749901
 21
-22.628700
  0
LINE
  8
0
  6
CONTINUOUS
 10
-6.247799
 20
24.621101
 11
-6.286499
 21
24.754997
  0
LINE
  8
0
  6
CONTINUOUS
 10
-6.286499
 20
24.754997
 11
-6.390499
 21
24.847298
  0
LINE
  8
0
  6
CONTINUOUS
 10
-6.390499
 20
24.847298
 11
-6.497200
 21
24.871300
  0
LINE
  8
0
  6
CONTINUOUS
 10
-27.748400
 20
24.871300
 11
-27.881901
 21
24.832497
  0
LINE
  8
0
  6
CONTINUOUS
 10
-27.881901
 20
24.832497
 11
-27.973900
 21
24.728104
  0
LINE
  8
0
  6
CONTINUOUS
 10
-27.973900
 20
24.728104
 11
-27.997799
 21
24.621101
  0
LINE
  8
0
  6
CONTINUOUS
 10
-27.629601
 20
15.253201
 11
-27.570599
 21
16.064701
  0
LINE
  8
0
  6
CONTINUOUS
 10
-27.570599
 20
16.064701
 11
-27.466000
 21
16.583199
  0
LINE
  8
0
  6
CONTINUOUS
 10
-27.466000
 20
16.583199
 11
-27.329100
 21
16.929298
  0
LINE
  8
0
  6
CONTINUOUS
 10
-27.329100
 20
16.929298
 11
-27.178299
 21
17.131802
  0
LINE
  8
0
  6
CONTINUOUS
 10
-27.178299
 20
17.131802
 11
-26.934000
 21
17.312698
  0
LINE
  8
0
  6
CONTINUOUS
 10
-6.609200
 20
16.708000
 11
-6.679001
 21
16.866199
  0
LINE
  8
0
  6
CONTINUOUS
 10
-6.679001
 20
16.866199
 11
-6.825199
 21
17.022701
  0
LINE
  8
0
  6
CONTINUOUS
 10
-6.825199
 20
17.022701
 11
-7.113701
 21
17.214298
  0
LINE
  8
0
  6
CONTINUOUS
 10
-7.113701
 20
17.214298
 11
-7.610401
 21
17.435501
  0
LINE
  8
0
  6
CONTINUOUS
 10
-7.610401
 20
17.435501
 11
-8.386900
 21
17.676800
  0
LINE
  8
0
  6
CONTINUOUS
 10
-8.386900
 20
17.676800
 11
-9.358801
 21
17.895000
  0
LINE
  8
0
  6
CONTINUOUS
 10
-9.358801
 20
17.895000
 11
-10.680799
 21
18.109798
  0
LINE
  8
0
  6
CONTINUOUS
 10
-10.680799
 20
18.109798
 11
-12.390699
 21
18.299999
  0
LINE
  8
0
  6
CONTINUOUS
 10
-12.390699
 20
18.299999
 11
-14.275400
 21
18.429001
  0
LINE
  8
0
  6
CONTINUOUS
 10
-14.275400
 20
18.429001
 11
-16.265301
 21
18.492100
  0
LINE
  8
0
  6
CONTINUOUS
 10
-16.265301
 20
18.492100
 11
-18.286900
 21
18.486801
  0
LINE
  8
0
  6
CONTINUOUS
 10
-18.286900
 20
18.486801
 11
-20.265400
 21
18.413502
  0
LINE
  8
0
  6
CONTINUOUS
 10
-20.265400
 20
18.413502
 11
-22.127899
 21
18.274799
  0
LINE
  8
0
  6
CONTINUOUS
 10
-22.127899
 20
18.274799
 11
-23.630301
 21
18.100800
  0
LINE
  8
0
  6
CONTINUOUS
 10
-23.630301
 20
18.100800
 11
-24.942600
 21
17.884102
  0
LINE
  8
0
  6
CONTINUOUS
 10
-24.942600
 20
17.884102
 11
-25.904701
 21
17.664600
  0
LINE
  8
0
  6
CONTINUOUS
 10
-25.904701
 20
17.664600
 11
-26.670399
 21
17.422199
  0
LINE
  8
0
  6
CONTINUOUS
 10
-26.670399
 20
17.422199
 11
-26.934000
 21
17.312698
  0
LINE
  8
0
  6
CONTINUOUS
 10
-17.372499
 20
15.019001
 11
-17.372801
 21
15.146900
  0
LINE
  8
0
  6
CONTINUOUS
 10
-16.922800
 20
15.146900
 11
-16.922501
 21
15.019001
  0
LINE
  8
0
  6
CONTINUOUS
 10
-13.239500
 20
-21.319700
 11
-13.389200
 21
-21.203199
  0
LINE
  8
0
  6
CONTINUOUS
 10
-13.389200
 20
-21.203199
 11
-13.469500
 21
-21.026501
  0
LINE
  8
0
  6
CONTINUOUS
 10
-13.469500
 20
-21.026501
 11
-13.491100
 21
-20.859900
  0
LINE
  8
0
  6
CONTINUOUS
 10
-28.039101
 20
11.871300
 11
-27.874401
 21
11.909302
  0
LINE
  8
0
  6
CONTINUOUS
 10
-27.874401
 20
11.909302
 11
-27.743200
 21
12.015701
  0
LINE
  8
0
  6
CONTINUOUS
 10
-27.743200
 20
12.015701
 11
-27.671900
 21
12.168900
  0
LINE
  8
0
  6
CONTINUOUS
 10
-27.671900
 20
12.168900
 11
-27.663900
 21
12.246601
  0
LINE
  8
0
  6
CONTINUOUS
 10
-27.645500
 20
-19.867500
 11
-27.749901
 21
-19.720100
  0
LINE
  8
0
  6
CONTINUOUS
 10
-27.749901
 20
-19.720100
 11
-27.906101
 21
-19.639700
  0
LINE
  8
0
  6
CONTINUOUS
 10
-27.906101
 20
-19.639700
 11
-27.998199
 21
-19.628700
  0
LINE
  8
0
  6
CONTINUOUS
 10
-27.629601
 20
15.253201
 11
-27.663900
 21
12.246601
  0
LINE
  8
0
  6
CONTINUOUS
 10
-6.388401
 20
11.253101
 11
-6.424900
 21
14.229301
  0
LINE
  8
0
  6
CONTINUOUS
 10
-6.424900
 20
14.229301
 11
-6.433201
 21
14.510899
  0
LINE
  8
0
  6
CONTINUOUS
 10
-27.645500
 20
-19.867500
 11
-27.560001
 21
-19.979300
  0
LINE
  8
0
  6
CONTINUOUS
 10
-27.560001
 20
-19.979300
 11
-27.431999
 21
-20.026300
  0
LINE
  8
0
  6
CONTINUOUS
 10
-27.431999
 20
-20.026300
 11
-27.416000
 21
-20.026899
  0
LINE
  8
0
  6
CONTINUOUS
 10
-6.636299
 20
-21.453699
 11
-6.506100
 21
-21.415701
  0
LINE
  8
0
  6
CONTINUOUS
 10
-6.506100
 20
-21.415701
 11
-6.413502
 21
-21.309900
  0
LINE
  8
0
  6
CONTINUOUS
 10
-6.413502
 20
-21.309900
 11
-6.388500
 21
-21.197201
  0
LINE
  8
0
  6
CONTINUOUS
 10
-19.616100
 20
-20.859900
 11
-19.656200
 21
-21.091000
  0
LINE
  8
0
  6
CONTINUOUS
 10
-19.656200
 20
-21.091000
 11
-19.747200
 21
-21.238300
  0
LINE
  8
0
  6
CONTINUOUS
 10
-19.747200
 20
-21.238300
 11
-19.864500
 21
-21.319700
  0
LINE
  8
0
  6
CONTINUOUS
 10
-11.932699
 20
-20.606300
 11
-12.383801
 21
-20.643000
  0
LINE
  8
0
  6
CONTINUOUS
 10
-12.383801
 20
-20.643000
 11
-12.648399
 21
-20.721399
  0
LINE
  8
0
  6
CONTINUOUS
 10
-12.648399
 20
-20.721399
 11
-12.737600
 21
-20.797400
  0
LINE
  8
0
  6
CONTINUOUS
 10
-12.737600
 20
-20.797400
 11
-12.731199
 21
-20.861200
  0
LINE
  8
0
  6
CONTINUOUS
 10
-12.731199
 20
-20.861200
 11
-12.616501
 21
-20.940500
  0
LINE
  8
0
  6
CONTINUOUS
 10
-12.616501
 20
-20.940500
 11
-12.312401
 21
-21.016001
  0
LINE
  8
0
  6
CONTINUOUS
 10
-12.312401
 20
-21.016001
 11
-11.929199
 21
-21.041700
  0
LINE
  8
0
  6
CONTINUOUS
 10
-8.804199
 20
-21.041700
 11
-8.353100
 21
-21.004999
  0
LINE
  8
0
  6
CONTINUOUS
 10
-8.353100
 20
-21.004999
 11
-8.088600
 21
-20.926600
  0
LINE
  8
0
  6
CONTINUOUS
 10
-8.088600
 20
-20.926600
 11
-7.999401
 21
-20.850700
  0
LINE
  8
0
  6
CONTINUOUS
 10
-7.999401
 20
-20.850700
 11
-8.005699
 21
-20.786800
  0
LINE
  8
0
  6
CONTINUOUS
 10
-8.005699
 20
-20.786800
 11
-8.120501
 21
-20.707500
  0
LINE
  8
0
  6
CONTINUOUS
 10
-8.120501
 20
-20.707500
 11
-8.424500
 21
-20.632000
  0
LINE
  8
0
  6
CONTINUOUS
 10
-8.424500
 20
-20.632000
 11
-8.807699
 21
-20.606300
  0
LINE
  8
0
  6
CONTINUOUS
 10
-20.863400
 20
-21.453699
 11
-20.288601
 21
-21.416100
  0
LINE
  8
0
  6
CONTINUOUS
 10
-20.288601
 20
-21.416100
 11
-19.881001
 21
-21.325500
  0
LINE
  8
0
  6
CONTINUOUS
 10
-19.881001
 20
-21.325500
 11
-19.864500
 21
-21.319700
  0
LINE
  8
0
  6
CONTINUOUS
 10
-14.718800
 20
-18.139500
 11
-15.136101
 21
-17.984600
  0
LINE
  8
0
  6
CONTINUOUS
 10
-15.136101
 20
-17.984600
 11
-15.769300
 21
-17.850500
  0
LINE
  8
0
  6
CONTINUOUS
 10
-15.769300
 20
-17.850500
 11
-16.566700
 21
-17.768400
  0
LINE
  8
0
  6
CONTINUOUS
 10
-16.566700
 20
-17.768400
 11
-17.466299
 21
-17.757200
  0
LINE
  8
0
  6
CONTINUOUS
 10
-17.466299
 20
-17.757200
 11
-18.287600
 21
-17.819000
  0
LINE
  8
0
  6
CONTINUOUS
 10
-18.287600
 20
-17.819000
 11
-18.962700
 21
-17.936800
  0
LINE
  8
0
  6
CONTINUOUS
 10
-18.962700
 20
-17.936800
 11
-19.429600
 21
-18.080601
  0
LINE
  8
0
  6
CONTINUOUS
 10
-19.429600
 20
-18.080601
 11
-19.637501
 21
-18.180700
  0
LINE
  8
0
  6
CONTINUOUS
 10
-13.239500
 20
-21.319700
 11
-12.837900
 21
-21.412701
  0
LINE
  8
0
  6
CONTINUOUS
 10
-12.837900
 20
-21.412701
 11
-12.265600
 21
-21.453600
  0
LINE
  8
0
  6
CONTINUOUS
 10
-12.265600
 20
-21.453600
 11
-12.238400
 21
-21.453699
  0
LINE
  8
0
  6
CONTINUOUS
 10
-26.749500
 20
-20.060400
 11
-26.832699
 21
-20.028799
  0
LINE
  8
0
  6
CONTINUOUS
 10
-26.832699
 20
-20.028799
 11
-26.874800
 21
-20.026899
  0
LINE
  8
0
  6
CONTINUOUS
 10
-26.741100
 20
-21.118799
 11
-26.699100
 21
-21.204100
  0
LINE
  8
0
  6
CONTINUOUS
 10
-26.699100
 20
-21.204100
 11
-26.528900
 21
-21.304800
  0
LINE
  8
0
  6
CONTINUOUS
 10
-26.528900
 20
-21.304800
 11
-26.157600
 21
-21.401699
  0
LINE
  8
0
  6
CONTINUOUS
 10
-26.157600
 20
-21.401699
 11
-25.610901
 21
-21.452101
  0
LINE
  8
0
  6
CONTINUOUS
 10
-25.610901
 20
-21.452101
 11
-25.488400
 21
-21.453699
  0
LINE
  8
0
  6
CONTINUOUS
 10
-13.583799
 20
17.689499
 11
-15.235300
 21
17.819000
  0
LINE
  8
0
  6
CONTINUOUS
 10
-15.235300
 20
17.819000
 11
-16.902901
 21
17.870399
  0
LINE
  8
0
  6
CONTINUOUS
 10
-16.902901
 20
17.870399
 11
-18.570999
 21
17.842300
  0
LINE
  8
0
  6
CONTINUOUS
 10
-18.570999
 20
17.842300
 11
-20.212500
 21
17.736599
  0
LINE
  8
0
  6
CONTINUOUS
 10
-20.212500
 20
17.736599
 11
-20.709600
 21
17.689499
  0
LINE
  8
0
  6
CONTINUOUS
 10
-13.583799
 20
17.689499
 11
-13.451700
 21
17.635300
  0
LINE
  8
0
  6
CONTINUOUS
 10
-13.451700
 20
17.635300
 11
-13.371500
 21
17.519001
  0
LINE
  8
0
  6
CONTINUOUS
 10
-13.371500
 20
17.519001
 11
-13.358999
 21
17.440800
  0
LINE
  8
0
  6
CONTINUOUS
 10
-20.659100
 20
-16.805401
 11
-20.799601
 21
-16.778700
  0
LINE
  8
0
  6
CONTINUOUS
 10
-20.799601
 20
-16.778700
 11
-20.901501
 21
-16.680201
  0
LINE
  8
0
  6
CONTINUOUS
 10
-20.901501
 20
-16.680201
 11
-20.934000
 21
-16.556601
  0
LINE
  8
0
  6
CONTINUOUS
 10
-20.934000
 20
17.440800
 11
-20.894501
 21
17.576000
  0
LINE
  8
0
  6
CONTINUOUS
 10
-20.894501
 20
17.576000
 11
-20.787399
 21
17.668701
  0
LINE
  8
0
  6
CONTINUOUS
 10
-20.787399
 20
17.668701
 11
-20.709600
 21
17.689499
  0
LINE
  8
0
  6
CONTINUOUS
 10
-13.544600
 20
-16.806499
 11
-15.193501
 21
-16.935400
  0
LINE
  8
0
  6
CONTINUOUS
 10
-15.193501
 20
-16.935400
 11
-16.858500
 21
-16.986401
  0
LINE
  8
0
  6
CONTINUOUS
 10
-16.858500
 20
-16.986401
 11
-18.529800
 21
-16.957899
  0
LINE
  8
0
  6
CONTINUOUS
 10
-18.529800
 20
-16.957899
 11
-20.174500
 21
-16.851299
  0
LINE
  8
0
  6
CONTINUOUS
 10
-20.174500
 20
-16.851299
 11
-20.659100
 21
-16.805401
  0
LINE
  8
0
  6
CONTINUOUS
 10
-19.634800
 20
16.006401
 11
-19.672300
 21
15.746300
  0
LINE
  8
0
  6
CONTINUOUS
 10
-19.634800
 20
16.006302
 11
-19.672300
 21
16.070999
  0
LINE
  8
0
  6
CONTINUOUS
 10
-19.672300
 20
16.070999
 11
-19.635300
 21
16.135899
  0
LINE
  8
0
  6
CONTINUOUS
 10
-19.635300
 20
16.135899
 11
-19.560801
 21
16.136799
  0
LINE
  8
0
  6
CONTINUOUS
 10
-19.560801
 20
16.136799
 11
-19.522301
 21
16.072601
  0
LINE
  8
0
  6
CONTINUOUS
 10
-19.522301
 20
16.072601
 11
-19.557199
 21
15.988098
  0
LINE
  8
0
  6
CONTINUOUS
 10
-19.557199
 20
15.988098
 11
-19.522301
 21
15.746300
  0
LINE
  8
0
  6
CONTINUOUS
 10
-19.847200
 20
16.371300
 11
-19.808901
 21
16.504200
  0
LINE
  8
0
  6
CONTINUOUS
 10
-19.808901
 20
16.504200
 11
-19.704800
 21
16.597000
  0
LINE
  8
0
  6
CONTINUOUS
 10
-19.704800
 20
16.597000
 11
-19.567101
 21
16.619499
  0
LINE
  8
0
  6
CONTINUOUS
 10
-19.567101
 20
16.619499
 11
-19.438900
 21
16.564602
  0
LINE
  8
0
  6
CONTINUOUS
 10
-19.438900
 20
16.564602
 11
-19.359400
 21
16.448601
  0
LINE
  8
0
  6
CONTINUOUS
 10
-19.359400
 20
16.448601
 11
-19.347401
 21
16.371300
  0
LINE
  8
0
  6
CONTINUOUS
 10
-6.860600
 20
-19.832300
 11
-6.914600
 21
-19.634701
  0
LINE
  8
0
  6
CONTINUOUS
 10
-6.914600
 20
-19.634701
 11
-7.021400
 21
-19.438601
  0
LINE
  8
0
  6
CONTINUOUS
 10
-7.021400
 20
-19.438601
 11
-7.245201
 21
-19.181200
  0
LINE
  8
0
  6
CONTINUOUS
 10
-7.245201
 20
-19.181200
 11
-7.560001
 21
-18.930799
  0
LINE
  8
0
  6
CONTINUOUS
 10
-7.560001
 20
-18.930799
 11
-8.076900
 21
-18.630899
  0
LINE
  8
0
  6
CONTINUOUS
 10
-8.076900
 20
-18.630899
 11
-8.723900
 21
-18.349701
  0
LINE
  8
0
  6
CONTINUOUS
 10
-8.723900
 20
-18.349701
 11
-9.491699
 21
-18.091101
  0
LINE
  8
0
  6
CONTINUOUS
 10
-9.491699
 20
-18.091101
 11
-10.556999
 21
-17.816099
  0
LINE
  8
0
  6
CONTINUOUS
 10
-10.556999
 20
-17.816099
 11
-11.758200
 21
-17.584700
  0
LINE
  8
0
  6
CONTINUOUS
 10
-11.758200
 20
-17.584700
 11
-13.070400
 21
-17.401899
  0
LINE
  8
0
  6
CONTINUOUS
 10
-13.070400
 20
-17.401899
 11
-14.466600
 21
-17.271299
  0
LINE
  8
0
  6
CONTINUOUS
 10
-14.466600
 20
-17.271299
 11
-16.163000
 21
-17.188601
  0
LINE
  8
0
  6
CONTINUOUS
 10
-16.163000
 20
-17.188601
 11
-17.886499
 21
-17.183100
  0
LINE
  8
0
  6
CONTINUOUS
 10
-17.886499
 20
-17.183100
 11
-19.588499
 21
-17.254900
  0
LINE
  8
0
  6
CONTINUOUS
 10
-19.588499
 20
-17.254900
 11
-20.993999
 21
-17.376400
  0
LINE
  8
0
  6
CONTINUOUS
 10
-20.993999
 20
-17.376400
 11
-22.319401
 21
-17.550800
  0
LINE
  8
0
  6
CONTINUOUS
 10
-22.319401
 20
-17.550800
 11
-23.537300
 21
-17.774300
  0
LINE
  8
0
  6
CONTINUOUS
 10
-23.537300
 20
-17.774300
 11
-24.622601
 21
-18.042500
  0
LINE
  8
0
  6
CONTINUOUS
 10
-24.622601
 20
-18.042500
 11
-25.409199
 21
-18.296000
  0
LINE
  8
0
  6
CONTINUOUS
 10
-25.409199
 20
-18.296000
 11
-26.076801
 21
-18.573000
  0
LINE
  8
0
  6
CONTINUOUS
 10
-26.076801
 20
-18.573000
 11
-26.615601
 21
-18.869499
  0
LINE
  8
0
  6
CONTINUOUS
 10
-26.615601
 20
-18.869499
 11
-26.948700
 21
-19.117901
  0
LINE
  8
0
  6
CONTINUOUS
 10
-26.948700
 20
-19.117901
 11
-27.191399
 21
-19.373699
  0
LINE
  8
0
  6
CONTINUOUS
 10
-27.191399
 20
-19.373699
 11
-27.312700
 21
-19.569099
  0
LINE
  8
0
  6
CONTINUOUS
 10
-27.312700
 20
-19.569099
 11
-27.381100
 21
-19.766300
  0
LINE
  8
0
  6
CONTINUOUS
 10
-27.381100
 20
-19.766300
 11
-27.392200
 21
-19.832300
  0
LINE
  8
0
  6
CONTINUOUS
 10
-13.540400
 20
-19.865999
 11
-13.498199
 21
-19.977200
  0
CIRCLE
  8
0
  6
CONTINUOUS
 10
-17.147743
 20
14.458801
 40
0.120000
  0
CIRCLE
  8
0
  6
CONTINUOUS
 10
-18.810131
 20
16.121319
 40
0.120000
  0
CIRCLE
  8
0
  6
CONTINUOUS
 10
-17.147743
 20
16.121319
 40
1.180000
  0
ARC
  8
0
  6
CONTINUOUS
 10
17.079834
 20
11.277351
 40
5.175000
 50
0.000000
 51
80.000000
  0
ARC
  8
0
  6
CONTINUOUS
 10
21.782463
 20
-12.503698
 40
0.124999
 50
179.999237
 51
270.000549
  0
ARC
  8
0
  6
CONTINUOUS
 10
21.782463
 20
4.746300
 40
0.125000
 50
89.999992
 51
180.000000
  0
ARC
  8
0
  6
CONTINUOUS
 10
6.179832
 20
22.848701
 40
0.250000
 50
95.000000
 51
178.565063
  0
ARC
  8
0
  6
CONTINUOUS
 10
-6.138718
 20
-12.503700
 40
0.124997
 50
269.998932
 51
0.001492
  0
ARC
  8
0
  6
CONTINUOUS
 10
-6.138988
 20
4.746300
 40
0.125000
 50
0.000117
 51
90.000099
  0
ARC
  8
0
  6
CONTINUOUS
 10
-6.138985
 20
-12.503698
 40
0.124999
 50
269.999359
 51
0.000642
  0
LINE
  8
0
  6
CONTINUOUS
 10
-16.922768
 20
16.721336
 11
-16.922768
 21
17.095692
  0
LINE
  8
0
  6
CONTINUOUS
 10
-17.372766
 20
16.721336
 11
-16.922768
 21
16.721336
  0
LINE
  8
0
  6
CONTINUOUS
 10
-17.370356
 20
16.721336
 11
-17.370356
 21
17.223606
  0
LINE
  8
0
  6
CONTINUOUS
 10
22.032997
 20
11.253124
 11
22.032997
 21
4.746300
  0
LINE
  8
0
  6
CONTINUOUS
 10
-6.247829
 20
4.871300
 11
-6.247829
 21
24.621109
  0
LINE
  8
0
  6
CONTINUOUS
 10
-6.609158
 20
16.707993
 11
-6.433186
 21
14.510902
  0
LINE
  8
0
  6
CONTINUOUS
 10
-17.585405
 20
-12.391197
 11
-17.172918
 21
-12.391197
  0
LINE
  8
0
  6
CONTINUOUS
 10
-17.585405
 20
-12.066198
 11
-17.172918
 21
-12.066198
  0
LINE
  8
0
  6
CONTINUOUS
 10
-17.172918
 20
-11.953697
 11
-17.172918
 21
-12.503698
  0
LINE
  8
0
  6
CONTINUOUS
 10
-17.022924
 20
-12.503698
 11
-17.172918
 21
-12.503698
  0
LINE
  8
0
  6
CONTINUOUS
 10
-17.172918
 20
-11.953697
 11
-17.022924
 21
-11.953697
  0
LINE
  8
0
  6
CONTINUOUS
 10
-16.750946
 20
-12.228699
 11
-16.097816
 21
-12.228699
  0
LINE
  8
0
  6
CONTINUOUS
 10
-15.697683
 20
-12.628698
 11
-15.697683
 21
-12.878698
  0
LINE
  8
0
  6
CONTINUOUS
 10
-15.697683
 20
-12.878698
 11
-15.986689
 21
-12.878698
  0
LINE
  8
0
  6
CONTINUOUS
 10
-16.510771
 20
-12.878698
 11
-17.779316
 21
-12.878698
  0
LINE
  8
0
  6
CONTINUOUS
 10
-18.364986
 20
-12.878698
 11
-18.598124
 21
-12.878698
  0
LINE
  8
0
  6
CONTINUOUS
 10
-18.597672
 20
-12.628698
 11
-18.597672
 21
-12.878698
  0
LINE
  8
0
  6
CONTINUOUS
 10
5.905994
 20
18.296295
 11
17.901558
 21
16.177162
  0
LINE
  8
0
  6
CONTINUOUS
 10
26.929832
 20
-22.628700
 11
26.929832
 21
24.871300
  0
LINE
  8
0
  6
CONTINUOUS
 10
26.429832
 20
24.871300
 11
26.929832
 21
24.871300
  0
LINE
  8
0
  6
CONTINUOUS
 10
26.929832
 20
-22.628700
 11
26.429832
 21
-22.628700
  0
LINE
  8
0
  6
CONTINUOUS
 10
6.158043
 20
23.097748
 11
26.429832
 21
24.871300
  0
LINE
  8
0
  6
CONTINUOUS
 10
26.429832
 20
-22.628700
 11
26.429832
 21
24.871300
  0
LINE
  8
0
  6
CONTINUOUS
 10
22.254833
 20
11.277351
 11
22.254833
 21
-21.513000
  0
LINE
  8
0
  6
CONTINUOUS
 10
28.429832
 20
24.246300
 11
28.429832
 21
23.996300
  0
LINE
  8
0
  6
CONTINUOUS
 10
26.929832
 20
24.246300
 11
28.429832
 21
24.246300
  0
LINE
  8
0
  6
CONTINUOUS
 10
28.179832
 20
-6.253700
 11
28.179832
 21
-21.253698
  0
LINE
  8
0
  6
CONTINUOUS
 10
28.179832
 20
-6.253700
 11
28.429832
 21
-6.003700
  0
LINE
  8
0
  6
CONTINUOUS
 10
28.429832
 20
-6.003700
 11
28.429832
 21
23.996300
  0
LINE
  8
0
  6
CONTINUOUS
 10
28.179832
 20
-21.253698
 11
28.179832
 21
-21.503698
  0
LINE
  8
0
  6
CONTINUOUS
 10
28.179832
 20
-21.503698
 11
26.929832
 21
-21.503698
  0
LINE
  8
0
  6
CONTINUOUS
 10
6.603210
 20
-16.556650
 11
6.603210
 21
17.440777
  0
LINE
  8
0
  6
CONTINUOUS
 10
26.418358
 20
-22.628700
 11
6.069885
 21
-17.175924
  0
LINE
  8
0
  6
CONTINUOUS
 10
18.870743
 20
-17.966200
 11
18.870743
 21
-16.591198
  0
LINE
  8
0
  6
CONTINUOUS
 10
20.495617
 20
-16.591198
 11
20.495617
 21
-17.966200
  0
LINE
  8
0
  6
CONTINUOUS
 10
22.032997
 20
-21.197218
 11
22.032997
 21
-12.503698
  0
LINE
  8
0
  6
CONTINUOUS
 10
21.907463
 20
4.871300
 11
21.908009
 21
4.871300
  0
LINE
  8
0
  6
CONTINUOUS
 10
21.908009
 20
-12.628698
 11
21.907463
 21
-12.628698
  0
LINE
  8
0
  6
CONTINUOUS
 10
21.657463
 20
-12.503698
 11
21.657463
 21
4.746300
  0
LINE
  8
0
  6
CONTINUOUS
 10
21.907463
 20
-12.628698
 11
21.782463
 21
-12.628698
  0
LINE
  8
0
  6
CONTINUOUS
 10
21.782463
 20
4.871300
 11
21.907463
 21
4.871300
  0
LINE
  8
0
  6
CONTINUOUS
 10
5.929832
 20
22.848701
 11
5.929832
 21
18.498230
  0
LINE
  8
0
  6
CONTINUOUS
 10
5.905994
 20
18.296295
 11
5.905994
 21
17.868732
  0
LINE
  8
0
  6
CONTINUOUS
 10
5.905994
 20
-16.630739
 11
5.905994
 21
-16.934492
  0
LINE
  8
0
  6
CONTINUOUS
 10
5.956799
 20
17.855415
 11
5.956799
 21
-16.578110
  0
LINE
  8
0
  6
CONTINUOUS
 10
-27.636501
 20
23.715858
 11
-27.997829
 21
24.621109
  0
LINE
  8
0
  6
CONTINUOUS
 10
-6.247829
 20
24.621109
 11
-6.609158
 21
23.715858
  0
LINE
  8
0
  6
CONTINUOUS
 10
-27.749937
 20
-22.628700
 11
-6.495724
 21
-22.628700
  0
LINE
  8
0
  6
CONTINUOUS
 10
-19.630911
 20
-18.878698
 11
-14.214258
 21
-18.878698
  0
LINE
  8
0
  6
CONTINUOUS
 10
-7.022987
 20
-21.476519
 11
-7.022987
 21
-21.453697
  0
LINE
  8
0
  6
CONTINUOUS
 10
-7.022987
 20
-21.476519
 11
-6.872829
 21
-22.628700
  0
LINE
  8
0
  6
CONTINUOUS
 10
-27.372829
 20
-22.628700
 11
-27.033743
 21
-20.026869
  0
LINE
  8
0
  6
CONTINUOUS
 10
-6.247829
 20
-22.372217
 11
-6.247829
 21
-12.628698
  0
LINE
  8
0
  6
CONTINUOUS
 10
-6.393623
 20
-21.249533
 11
-6.393623
 21
-21.253529
  0
LINE
  8
0
  6
CONTINUOUS
 10
-27.997829
 20
-22.372627
 11
-27.997829
 21
24.621109
  0
LINE
  8
0
  6
CONTINUOUS
 10
-6.497223
 20
24.871300
 11
-27.748438
 21
24.871300
  0
LINE
  8
0
  6
CONTINUOUS
 10
-17.370356
 20
15.521301
 11
-17.370356
 21
15.019032
  0
LINE
  8
0
  6
CONTINUOUS
 10
-17.372766
 20
15.146942
 11
-17.372766
 21
15.521301
  0
LINE
  8
0
  6
CONTINUOUS
 10
-17.372766
 20
15.521301
 11
-16.922768
 21
15.521301
  0
LINE
  8
0
  6
CONTINUOUS
 10
-16.922768
 20
15.521301
 11
-16.922768
 21
15.146942
  0
LINE
  8
0
  6
CONTINUOUS
 10
-6.138988
 20
4.871300
 11
-6.138718
 21
4.871300
  0
LINE
  8
0
  6
CONTINUOUS
 10
-6.013718
 20
-12.503698
 11
-6.013718
 21
4.746300
  0
LINE
  8
0
  6
CONTINUOUS
 10
-6.138718
 20
-12.628698
 11
-6.138988
 21
-12.628698
  0
LINE
  8
0
  6
CONTINUOUS
 10
-6.397717
 20
4.871300
 11
-6.138988
 21
4.871300
  0
LINE
  8
0
  6
CONTINUOUS
 10
-6.138988
 20
-12.628698
 11
-6.397717
 21
-12.628698
  0
LINE
  8
0
  6
CONTINUOUS
 10
-13.491114
 20
-20.859943
 11
-13.498190
 21
-19.975239
  0
LINE
  8
0
  6
CONTINUOUS
 10
-29.124508
 20
11.871300
 11
-28.039089
 21
11.871300
  0
LINE
  8
0
  6
CONTINUOUS
 10
-27.997829
 20
-19.628698
 11
-29.124889
 21
-19.628698
  0
LINE
  8
0
  6
CONTINUOUS
 10
-29.124889
 20
-19.628698
 11
-29.124889
 21
11.871300
  0
LINE
  8
0
  6
CONTINUOUS
 10
-6.388451
 20
4.871300
 11
-6.388451
 21
11.253124
  0
LINE
  8
0
  6
CONTINUOUS
 10
-6.388451
 20
-21.197218
 11
-6.388451
 21
-12.628698
  0
LINE
  8
0
  6
CONTINUOUS
 10
-6.402348
 20
4.871300
 11
-6.402348
 21
-12.628698
  0
LINE
  8
0
  6
CONTINUOUS
 10
-19.616098
 20
-20.859943
 11
-19.616098
 21
-20.730534
  0
LINE
  8
0
  6
CONTINUOUS
 10
-19.637527
 20
-18.180738
 11
-19.616098
 21
-20.859943
  0
LINE
  8
0
  6
CONTINUOUS
 10
-11.932714
 20
-20.606308
 11
-8.807722
 21
-20.606308
  0
LINE
  8
0
  6
CONTINUOUS
 10
-8.804239
 20
-21.041725
 11
-11.929232
 21
-21.041725
  0
LINE
  8
0
  6
CONTINUOUS
 10
-6.636341
 20
-21.453697
 11
-12.238438
 21
-21.453697
  0
LINE
  8
0
  6
CONTINUOUS
 10
-26.874815
 20
-20.026869
 11
-27.415968
 21
-20.026869
  0
LINE
  8
0
  6
CONTINUOUS
 10
-26.741081
 20
-21.118761
 11
-26.749548
 21
-20.060364
  0
LINE
  8
0
  6
CONTINUOUS
 10
-20.863417
 20
-21.453697
 11
-25.488407
 21
-21.453697
  0
LINE
  8
0
  6
CONTINUOUS
 10
-13.359034
 20
-16.556650
 11
-13.359034
 21
17.440777
  0
LINE
  8
0
  6
CONTINUOUS
 10
-20.934015
 20
17.440777
 11
-20.934015
 21
-16.556650
  0
LINE
  8
0
  6
CONTINUOUS
 10
-19.522335
 20
15.746300
 11
-19.672258
 21
15.746300
  0
LINE
  8
0
  6
CONTINUOUS
 10
-19.722233
 20
16.208801
 11
-19.722233
 21
16.352551
  0
LINE
  8
0
  6
CONTINUOUS
 10
-19.472361
 20
16.208801
 11
-19.722233
 21
16.208801
  0
LINE
  8
0
  6
CONTINUOUS
 10
-19.472361
 20
16.352551
 11
-19.472357
 21
16.208801
  0
LINE
  8
0
  6
CONTINUOUS
 10
-19.472357
 20
16.208801
 11
-19.472357
 21
16.352551
  0
LINE
  8
0
  6
CONTINUOUS
 10
-19.884640
 20
15.908802
 11
-19.884640
 21
16.208801
  0
LINE
  8
0
  6
CONTINUOUS
 10
-19.884640
 20
16.208801
 11
-19.847162
 21
16.208801
  0
LINE
  8
0
  6
CONTINUOUS
 10
-19.847162
 20
16.208801
 11
-19.847162
 21
16.371300
  0
LINE
  8
0
  6
CONTINUOUS
 10
-19.347422
 20
16.371300
 11
-19.347422
 21
16.208801
  0
LINE
  8
0
  6
CONTINUOUS
 10
-19.347422
 20
16.208801
 11
-19.309938
 21
16.208801
  0
LINE
  8
0
  6
CONTINUOUS
 10
-19.309938
 20
16.208801
 11
-19.309938
 21
15.908802
  0
LINE
  8
0
  6
CONTINUOUS
 10
-27.392166
 20
-19.832300
 11
-27.415968
 21
-20.026869
  0
LINE
  8
0
  6
CONTINUOUS
 10
-6.636341
 20
-21.453699
 11
-6.860619
 21
-19.832300
  0
LINE
  8
0
  6
CONTINUOUS
 10
-17.147751
 20
-16.628698
 11
-17.148035
 21
-16.628698
  0
LINE
  8
0
  6
CONTINUOUS
 10
-14.718809
 20
-18.139492
 11
-13.540388
 21
-19.865967
  0
LINE
  8
0
  6
CONTINUOUS
 10
35.000000
 20
-31.500000
 11
35.000000
 21
-37.500000
  0
LINE
  8
0
  6
CONTINUOUS
 10
-35.000000
 20
-31.500000
 11
-35.000000
 21
-37.500000
  0
LINE
  8
0
  6
CONTINUOUS
 10
-35.000000
 20
-37.500000
 11
35.000000
 21
-37.500000
  0
LINE
  8
0
  6
CONTINUOUS
 10
-20.000000
 20
-31.500000
 11
-20.000000
 21
-37.500000
  0
LINE
  8
0
  6
CONTINUOUS
 10
-35.000000
 20
-31.500000
 11
35.000000
 21
-31.500000
  0
LINE
  8
0
  6
CONTINUOUS
 10
40.000000
 20
42.500000
 11
40.000000
 21
-42.500000
  0
LINE
  8
0
  6
CONTINUOUS
 10
-40.000000
 20
-42.500000
 11
40.000000
 21
-42.500000
  0
LINE
  8
0
  6
CONTINUOUS
 10
-30.000000
 20
42.500000
 11
-30.000000
 21
34.500000
  0
LINE
  8
0
  6
CONTINUOUS
 10
-40.000000
 20
34.500000
 11
40.000000
 21
34.500000
  0
LINE
  8
0
  6
CONTINUOUS
 10
-40.000000
 20
42.500000
 11
40.000000
 21
42.500000
  0
LINE
  8
0
  6
CONTINUOUS
 10
-40.000000
 20
42.500000
 11
-40.000000
 21
-42.500000
  0
LINE
  8
0
  6
CONTINUOUS
 10
5.929832
 20
18.498230
 11
17.978462
 21
16.373734
  0
TEXT
  8
0
 10
-31.583332
 20
-36.000000
 40
3.000000
  1
定　格
 41
0.833000
  0
TEXT
  8
0
 10
-19.566835
 20
11.455994
 40
0.800000
  1
Panasonic
 41
0.753000
  0
TEXT
  8
0
 10
-18.557030
 20
-14.720659
 40
0.800000
  1
100V用
 41
0.736000
  0
TEXT
  8
0
 10
22.342171
 20
-41.031204
 40
2.000000
  1
WK4411W
  0
TEXT
  8
0
 10
-17.949541
 20
-36.000000
 40
3.000000
  1
15A 125V
 41
1.101000
  0
TEXT
  8
0
 10
-27.358669
 20
39.185684
 40
2.000000
  1
EV・PHEV充電用　カバー付接地屋外コンセント
 41
0.862000
  0
TEXT
  8
0
 10
-28.393070
 20
36.185684
 40
2.000000
  1
（簡易鍵付）（露出・埋込両用）（100V用）（ホワイト）
 41
0.862000
  0
LINE
  8
0
  6
CONTINUOUS
 10
0.303101
 20
24.871300
 11
0.303101
 21
-22.628700
  0
LINE
  8
0
  6
CONTINUOUS
 10
-6.497829
 20
24.871300
 11
1.303101
 21
24.871300
  0
LINE
  8
0
  6
CONTINUOUS
 10
-6.495724
 20
-22.628700
 11
1.303101
 21
-22.628700
  0
LINE
  8
0
  6
CONTINUOUS
 10
5.929832
 20
27.511765
 11
28.429832
 21
27.511765
  0
LINE
  8
0
  6
CONTINUOUS
 10
5.929832
 20
22.848701
 11
5.929832
 21
27.761765
  0
LINE
  8
0
  6
CONTINUOUS
 10
28.429832
 20
23.996300
 11
28.429832
 21
27.761765
  0
LINE
  8
0
  6
CONTINUOUS
 10
-27.997829
 20
27.819267
 11
-6.247829
 21
27.819267
  0
LINE
  8
0
  6
CONTINUOUS
 10
-27.997829
 20
24.621300
 11
-27.997829
 21
28.819267
  0
LINE
  8
0
  6
CONTINUOUS
 10
-6.247829
 20
24.621300
 11
-6.247829
 21
28.819267
  0
TEXT
  8
0
 10
-19.206161
 20
28.454269
 40
2.500000
  1
87
  0
LINE
  8
0
  6
CONTINUOUS
 10
-7.747829
 20
28.069275
 11
-6.247829
 21
27.819267
  0
LINE
  8
0
  6
CONTINUOUS
 10
-6.247829
 20
27.819267
 11
-7.747829
 21
27.569267
  0
LINE
  8
0
  6
CONTINUOUS
 10
-6.247829
 20
27.819267
 11
-7.747829
 21
27.819267
  0
LINE
  8
0
  6
CONTINUOUS
 10
-26.497829
 20
27.569267
 11
-27.997829
 21
27.819267
  0
LINE
  8
0
  6
CONTINUOUS
 10
-27.997829
 20
27.819267
 11
-26.497829
 21
28.069275
  0
LINE
  8
0
  6
CONTINUOUS
 10
-27.997829
 20
27.819267
 11
-26.497829
 21
27.819267
  0
TEXT
  8
0
 10
15.117332
 20
28.146767
 40
2.500000
  1
90
 41
1.100000
  0
LINE
  8
0
  6
CONTINUOUS
 10
26.929832
 20
27.761765
 11
28.429832
 21
27.511765
  0
LINE
  8
0
  6
CONTINUOUS
 10
28.429832
 20
27.511765
 11
26.929832
 21
27.261765
  0
LINE
  8
0
  6
CONTINUOUS
 10
28.429832
 20
27.511765
 11
26.929832
 21
27.511765
  0
LINE
  8
0
  6
CONTINUOUS
 10
7.429832
 20
27.261765
 11
5.929832
 21
27.511765
  0
LINE
  8
0
  6
CONTINUOUS
 10
5.929832
 20
27.511765
 11
7.429832
 21
27.761765
  0
LINE
  8
0
  6
CONTINUOUS
 10
5.929832
 20
27.511765
 11
7.429832
 21
27.511765
  0
TEXT
  8
0
 10
-0.331902
 20
-2.128696
 40
2.500000
  1
190
 50
90.000000
 41
1.200000
  0
LINE
  8
0
  6
CONTINUOUS
 10
0.553101
 20
-21.128700
 11
0.303101
 21
-22.628700
  0
LINE
  8
0
  6
CONTINUOUS
 10
0.303101
 20
-22.628700
 11
0.053097
 21
-21.128700
  0
LINE
  8
0
  6
CONTINUOUS
 10
0.303101
 20
-22.628700
 11
0.303101
 21
-21.128700
  0
LINE
  8
0
  6
CONTINUOUS
 10
0.053097
 20
23.371300
 11
0.303101
 21
24.871300
  0
LINE
  8
0
  6
CONTINUOUS
 10
0.303101
 20
24.871300
 11
0.553101
 21
23.371300
  0
LINE
  8
0
  6
CONTINUOUS
 10
0.303101
 20
24.871300
 11
0.303101
 21
23.371300
  0
ENDSEC
  0
EOF
