  0
SECTION
  2
HEADER
  9
$ACADVER
  1
AC1009
  9
$INSBASE
 10
0.0
 20
0.0
 30
0.0
  9
$EXTMIN
 10
-40.003967069792537
 20
-42.50335672113971
 30
-0.0015258207003583
  9
$EXTMAX
 10
40.003967488887668
 20
42.503357140234797
 30
0.0000000349246037
  9
$LIMMIN
 10
0.0
 20
0.0
  9
$LIMMAX
 10
12.0
 20
9.0
  9
$ORTHOMODE
 70
     0
  9
$REGENMODE
 70
     1
  9
$FILLMODE
 70
     1
  9
$QTEXTMODE
 70
     0
  9
$MIRRTEXT
 70
     0
  9
$DRAGMODE
 70
     2
  9
$LTSCALE
 40
1.0
  9
$OSMODE
 70
   167
  9
$ATTMODE
 70
     1
  9
$TEXTSIZE
 40
2.0
  9
$TRACEWID
 40
0.05
  9
$TEXTSTYLE
  7
STANDARD
  9
$CLAYER
  8
0
  9
$CELTYPE
  6
CONTINUOUS
  9
$CECOLOR
 62
   256
  9
$DIMSCALE
 40
1.0
  9
$DIMASZ
 40
0.18
  9
$DIMEXO
 40
0.0625
  9
$DIMDLI
 40
0.38
  9
$DIMRND
 40
0.0
  9
$DIMDLE
 40
0.0
  9
$DIMEXE
 40
0.18
  9
$DIMTP
 40
0.0
  9
$DIMTM
 40
0.0
  9
$DIMTXT
 40
0.18
  9
$DIMCEN
 40
0.09
  9
$DIMTSZ
 40
0.0
  9
$DIMTOL
 70
     0
  9
$DIMLIM
 70
     0
  9
$DIMTIH
 70
     1
  9
$DIMTOH
 70
     1
  9
$DIMSE1
 70
     0
  9
$DIMSE2
 70
     0
  9
$DIMTAD
 70
     0
  9
$DIMZIN
 70
     0
  9
$DIMBLK
  1

  9
$DIMASO
 70
     1
  9
$DIMSHO
 70
     1
  9
$DIMPOST
  1

  9
$DIMAPOST
  1

  9
$DIMALT
 70
     0
  9
$DIMALTD
 70
     2
  9
$DIMALTF
 40
25.399999999999999
  9
$DIMLFAC
 40
1.0
  9
$DIMTOFL
 70
     0
  9
$DIMTVP
 40
0.0
  9
$DIMTIX
 70
     0
  9
$DIMSOXD
 70
     0
  9
$DIMSAH
 70
     0
  9
$DIMBLK1
  1

  9
$DIMBLK2
  1

  9
$DIMSTYLE
  2
STANDARD
  9
$DIMCLRD
 70
     0
  9
$DIMCLRE
 70
     0
  9
$DIMCLRT
 70
     0
  9
$DIMTFAC
 40
1.0
  9
$DIMGAP
 40
0.09
  9
$LUNITS
 70
     2
  9
$LUPREC
 70
     4
  9
$SKETCHINC
 40
0.1
  9
$FILLETRAD
 40
0.0
  9
$AUNITS
 70
     0
  9
$AUPREC
 70
     0
  9
$MENU
  1
.
  9
$ELEVATION
 40
0.0
  9
$PELEVATION
 40
0.0
  9
$THICKNESS
 40
0.0
  9
$LIMCHECK
 70
     0
  9
$BLIPMODE
 70
     0
  9
$CHAMFERA
 40
0.0
  9
$CHAMFERB
 40
0.0
  9
$SKPOLY
 70
     0
  9
$TDCREATE
 40
2455901.7123026969
  9
$TDUPDATE
 40
2455901.7126217009
  9
$TDINDWG
 40
0.0003191898
  9
$TDUSRTIMER
 40
0.0003191898
  9
$USRTIMER
 70
     1
  9
$ANGBASE
 50
0.0
  9
$ANGDIR
 70
     0
  9
$PDMODE
 70
     0
  9
$PDSIZE
 40
0.0
  9
$PLINEWID
 40
0.0
  9
$COORDS
 70
     0
  9
$SPLFRAME
 70
     0
  9
$SPLINETYPE
 70
     6
  9
$SPLINESEGS
 70
     8
  9
$ATTDIA
 70
     0
  9
$ATTREQ
 70
     1
  9
$HANDLING
 70
     1
  9
$HANDSEED
  5
32F
  9
$SURFTAB1
 70
     6
  9
$SURFTAB2
 70
     6
  9
$SURFTYPE
 70
     6
  9
$SURFU
 70
     6
  9
$SURFV
 70
     6
  9
$UCSNAME
  2

  9
$UCSORG
 10
0.0
 20
0.0
 30
0.0
  9
$UCSXDIR
 10
1.0
 20
0.0
 30
0.0
  9
$UCSYDIR
 10
0.0
 20
1.0
 30
0.0
  9
$PUCSNAME
  2

  9
$PUCSORG
 10
0.0
 20
0.0
 30
0.0
  9
$PUCSXDIR
 10
1.0
 20
0.0
 30
0.0
  9
$PUCSYDIR
 10
0.0
 20
1.0
 30
0.0
  9
$USERI1
 70
     0
  9
$USERI2
 70
     0
  9
$USERI3
 70
     0
  9
$USERI4
 70
     0
  9
$USERI5
 70
     0
  9
$USERR1
 40
0.0
  9
$USERR2
 40
0.0
  9
$USERR3
 40
0.0
  9
$USERR4
 40
0.0
  9
$USERR5
 40
0.0
  9
$WORLDVIEW
 70
     1
  9
$SHADEDGE
 70
     3
  9
$SHADEDIF
 70
    70
  9
$TILEMODE
 70
     1
  9
$MAXACTVP
 70
    64
  9
$PLIMCHECK
 70
     0
  9
$PEXTMIN
 10
1.0000000000000000E+020
 20
1.0000000000000000E+020
 30
1.0000000000000000E+020
  9
$PEXTMAX
 10
-1.0000000000000000E+020
 20
-1.0000000000000000E+020
 30
-1.0000000000000000E+020
  9
$PLIMMIN
 10
0.0
 20
0.0
  9
$PLIMMAX
 10
12.0
 20
9.0
  9
$UNITMODE
 70
     0
  9
$VISRETAIN
 70
     1
  9
$PLINEGEN
 70
     0
  9
$PSLTSCALE
 70
     1
  0
ENDSEC
  0
SECTION
  2
TABLES
  0
TABLE
  2
VPORT
 70
     1
  0
VPORT
  2
*ACTIVE
 70
     0
 10
0.0
 20
0.0
 11
1.0
 21
1.0
 12
0.000000209547558
 22
0.0000002095475509
 13
0.0
 23
0.0
 14
1.0
 24
1.0
 15
0.0
 25
0.0
 16
0.0
 26
0.0
 36
1.0
 17
0.0
 27
0.0
 37
0.0
 40
85.552795535002176
 41
1.62593783494105
 42
50.0
 43
0.0
 44
0.0
 50
0.0
 51
0.0
 71
     0
 72
   100
 73
     1
 74
     1
 75
     0
 76
     0
 77
     0
 78
     0
  0
ENDTAB
  0
TABLE
  2
LTYPE
 70
     5
  0
LTYPE
  2
CONTINUOUS
 70
     0
  3
実線
 72
    65
 73
     0
 40
0.0
  0
LTYPE
  2
HIDDEN
 70
     0
  3
_ _ _ _ _ _ _ _ _ _ _ _ _ _ _ _ _ _ _ _ _ _ _
 72
    65
 73
     2
 40
0.375
 49
0.25
 49
-0.125
  0
LTYPE
  2
CENTER
 70
     0
  3
____ _ ____ _ ____ _ ____ _ ____ _ ____ _ ____
 72
    65
 73
     4
 40
2.0
 49
1.25
 49
-0.25
 49
0.25
 49
-0.25
  0
LTYPE
  2
PHANTOM
 70
     0
  3
_____ _ _ _____ _ _ _____ _ _ _____ _ _ ____
 72
    65
 73
     6
 40
2.5
 49
1.25
 49
-0.25
 49
0.25
 49
-0.25
 49
0.25
 49
-0.25
  0
LTYPE
  2
DASHED
 70
     0
  3
__ __ __ __ __ __ __ __ __ __ __ __ __ __ __
 72
    65
 73
     2
 40
0.75
 49
0.5
 49
-0.25
  0
ENDTAB
  0
TABLE
  2
LAYER
 70
     1
  0
LAYER
  2
0
 70
     0
 62
     7
  6
CONTINUOUS
  0
ENDTAB
  0
TABLE
  2
STYLE
 70
     2
  0
STYLE
  2
STANDARD
 70
     0
 40
2.0
 41
1.0
 50
0.0
 71
     0
 42
2.0
  3
txt
  4
bigfont
  0
STYLE
  2
ANNOTATIVE
 70
     0
 40
0.0
 41
1.0
 50
0.0
 71
     0
 42
0.2
  3
txt
  4

  0
ENDTAB
  0
TABLE
  2
VIEW
 70
     0
  0
ENDTAB
  0
TABLE
  2
UCS
 70
     0
  0
ENDTAB
  0
TABLE
  2
APPID
 70
     3
  0
APPID
  2
ACAD
 70
     0
  0
APPID
  2
ACADANNOTATIVE
 70
     0
  0
APPID
  2
ACAD_MLEADERVER
 70
     0
  0
ENDTAB
  0
TABLE
  2
DIMSTYLE
 70
     2
  0
DIMSTYLE
  2
STANDARD
 70
     0
  3

  4

  5

  6

  7

 40
1.0
 41
0.18
 42
0.0625
 43
0.38
 44
0.18
 45
0.0
 46
0.0
 47
0.0
 48
0.0
140
0.18
141
0.09
142
0.0
143
25.399999999999999
144
1.0
145
0.0
146
1.0
147
0.09
 71
     0
 72
     0
 73
     1
 74
     1
 75
     0
 76
     0
 77
     0
 78
     0
170
     0
171
     2
172
     0
173
     0
174
     0
175
     0
176
     0
177
     0
178
     0
  0
DIMSTYLE
  2
ANNOTATIVE
 70
     0
  3

  4

  5

  6

  7

 40
1.0
 41
0.18
 42
0.0625
 43
0.38
 44
0.18
 45
0.0
 46
0.0
 47
0.0
 48
0.0
140
0.18
141
0.09
142
0.0
143
25.399999999999999
144
1.0
145
0.0
146
1.0
147
0.09
 71
     0
 72
     0
 73
     1
 74
     1
 75
     0
 76
     0
 77
     0
 78
     0
170
     0
171
     2
172
     0
173
     0
174
     0
175
     0
176
     0
177
     0
178
     0
  0
ENDTAB
  0
ENDSEC
  0
SECTION
  2
BLOCKS
  0
BLOCK
  8
0
  2
$MODEL_SPACE
 70
     0
 10
0.0
 20
0.0
 30
0.0
  3
$MODEL_SPACE
  1

  0
ENDBLK
  5
78
  8
0
  0
BLOCK
 67
     1
  8
0
  2
$PAPER_SPACE
 70
     0
 10
0.0
 20
0.0
 30
0.0
  3
$PAPER_SPACE
  1

  0
ENDBLK
  5
74
 67
     1
  8
0
  0
ENDSEC
  0
SECTION
  2
ENTITIES
  0
LINE
  5
81
  8
0
  6
CONTINUOUS
 10
23.991402000000001
 20
-11.708799000000001
 30
0.0
 11
23.991402000000001
 21
-11.4589
 31
0.0
  0
LINE
  5
82
  8
0
  6
CONTINUOUS
 10
23.991402000000001
 20
16.291198999999999
 30
0.0
 11
23.991402000000001
 21
16.541302000000002
 31
0.0
  0
LINE
  5
83
  8
0
  6
CONTINUOUS
 10
-7.4702989999999998
 20
15.501701000000001
 30
0.0
 11
-7.5083999999999991
 21
15.692799000000001
 31
0.0
  0
LINE
  5
84
  8
0
  6
CONTINUOUS
 10
-7.5083999999999991
 20
15.692799000000001
 30
0.0
 11
-7.6166989999999997
 21
15.854900000000001
 31
0.0
  0
LINE
  5
85
  8
0
  6
CONTINUOUS
 10
-7.6166989999999997
 20
15.854900000000001
 30
0.0
 11
-7.7788009999999987
 21
15.963200000000001
 31
0.0
  0
LINE
  5
86
  8
0
  6
CONTINUOUS
 10
-7.7788009999999987
 20
15.963200000000001
 30
0.0
 11
-7.970000999999999
 21
16.001301000000002
 31
0.0
  0
LINE
  5
87
  8
0
  6
CONTINUOUS
 10
-24.390799999999999
 20
16.001301000000002
 30
0.0
 11
-24.582001000000002
 21
15.963200000000001
 31
0.0
  0
LINE
  5
88
  8
0
  6
CONTINUOUS
 10
-24.582001000000002
 20
15.963200000000001
 30
0.0
 11
-24.743998999999999
 21
15.854900000000001
 31
0.0
  0
LINE
  5
89
  8
0
  6
CONTINUOUS
 10
-24.743998999999999
 20
15.854900000000001
 30
0.0
 11
-24.852298999999999
 21
15.692799000000001
 31
0.0
  0
LINE
  5
8A
  8
0
  6
CONTINUOUS
 10
-24.852298999999999
 20
15.692799000000001
 30
0.0
 11
-24.8904
 21
15.501598
 31
0.0
  0
LINE
  5
8B
  8
0
  6
CONTINUOUS
 10
-24.882200000000001
 20
-4.706599999999999
 30
0.0
 11
-24.765498999999998
 21
-4.7028999999999987
 31
0.0
  0
LINE
  5
8C
  8
0
  6
CONTINUOUS
 10
-24.342099999999999
 20
-4.7028999999999987
 30
0.0
 11
-24.144400000000001
 21
-4.7085989999999986
 31
0.0
  0
LINE
  5
8D
  8
0
  6
CONTINUOUS
 10
-7.5952000000000002
 20
-4.7028999999999987
 30
0.0
 11
-7.4785000000000004
 21
-4.706599999999999
 31
0.0
  0
LINE
  5
8E
  8
0
  6
CONTINUOUS
 10
-7.9622000000000002
 20
-11.176000999999999
 30
0.0
 11
-7.7677990000000001
 21
-11.133300999999999
 31
0.0
  0
LINE
  5
8F
  8
0
  6
CONTINUOUS
 10
-7.7677990000000001
 20
-11.133300999999999
 30
0.0
 11
-7.6055979999999987
 21
-11.0182
 31
0.0
  0
LINE
  5
90
  8
0
  6
CONTINUOUS
 10
-7.6055979999999987
 20
-11.0182
 30
0.0
 11
-7.5032009999999989
 21
-10.8545
 31
0.0
  0
LINE
  5
91
  8
0
  6
CONTINUOUS
 10
-7.5032009999999989
 20
-10.8545
 30
0.0
 11
-7.4702989999999998
 21
-10.676399
 31
0.0
  0
LINE
  5
92
  8
0
  6
CONTINUOUS
 10
-24.8904
 20
-10.676299999999999
 30
0.0
 11
-24.853100000000001
 21
-10.865800999999999
 31
0.0
  0
LINE
  5
93
  8
0
  6
CONTINUOUS
 10
-24.853100000000001
 20
-10.865800999999999
 30
0.0
 11
-24.7425
 21
-11.0312
 31
0.0
  0
LINE
  5
94
  8
0
  6
CONTINUOUS
 10
-24.7425
 20
-11.0312
 30
0.0
 11
-24.581699
 21
-11.1381
 31
0.0
  0
LINE
  5
95
  8
0
  6
CONTINUOUS
 10
-24.581699
 20
-11.1381
 30
0.0
 11
-24.398499999999999
 21
-11.176000999999999
 31
0.0
  0
LINE
  5
96
  8
0
  6
CONTINUOUS
 10
-10.405899
 20
-2.4458999999999991
 30
0.0
 11
-10.3552
 21
-2.5378989999999999
 31
0.0
  0
LINE
  5
97
  8
0
  6
CONTINUOUS
 10
-10.3552
 20
-2.5378989999999999
 30
0.0
 11
-10.353201
 21
-2.5793989999999991
 31
0.0
  0
LINE
  5
98
  8
0
  6
CONTINUOUS
 10
-10.631900999999999
 20
-2.5601009999999991
 30
0.0
 11
-10.586900999999999
 21
-2.6339000000000001
 31
0.0
  0
LINE
  5
99
  8
0
  6
CONTINUOUS
 10
-10.586900999999999
 20
-2.6339000000000001
 30
0.0
 11
-10.579200999999999
 21
-2.639599
 31
0.0
  0
LINE
  5
9A
  8
0
  6
CONTINUOUS
 10
-10.598000000000001
 20
-2.4934009999999991
 30
0.0
 11
-10.631900999999999
 21
-2.5601009999999991
 31
0.0
  0
LINE
  5
9B
  8
0
  6
CONTINUOUS
 10
-10.534000000000001
 20
-2.471099999999999
 30
0.0
 11
-10.598000000000001
 21
-2.4934009999999991
 31
0.0
  0
LINE
  5
9C
  8
0
  6
CONTINUOUS
 10
-10.469999
 20
-2.4934009999999991
 30
0.0
 11
-10.534000000000001
 21
-2.471099999999999
 31
0.0
  0
LINE
  5
9D
  8
0
  6
CONTINUOUS
 10
-10.4398
 20
-2.5793989999999991
 30
0.0
 11
-10.462600999999999
 21
-2.5001980000000001
 31
0.0
  0
LINE
  5
9E
  8
0
  6
CONTINUOUS
 10
-10.462600999999999
 20
-2.5001980000000001
 30
0.0
 11
-10.469999
 21
-2.4934009999999991
 31
0.0
  0
LINE
  5
9F
  8
0
  6
CONTINUOUS
 10
-10.534000000000001
 20
-2.4075999999999991
 30
0.0
 11
-10.413
 21
-2.4403000000000001
 31
0.0
  0
LINE
  5
A0
  8
0
  6
CONTINUOUS
 10
-10.413
 20
-2.4403000000000001
 30
0.0
 11
-10.405899
 21
-2.4458999999999991
 31
0.0
  0
LINE
  5
A1
  8
0
  6
CONTINUOUS
 10
-10.658300000000001
 20
-2.452099
 30
0.0
 11
-10.5436
 21
-2.4079019999999991
 31
0.0
  0
LINE
  5
A2
  8
0
  6
CONTINUOUS
 10
-10.5436
 20
-2.4079019999999991
 30
0.0
 11
-10.534000000000001
 21
-2.4075999999999991
 31
0.0
  0
LINE
  5
A3
  8
0
  6
CONTINUOUS
 10
-10.7148
 20
-2.5695990000000002
 30
0.0
 11
-10.682699
 21
-2.4752999999999989
 31
0.0
  0
LINE
  5
A4
  8
0
  6
CONTINUOUS
 10
-10.682699
 20
-2.4752999999999989
 30
0.0
 11
-10.658300000000001
 21
-2.452099
 31
0.0
  0
LINE
  5
A5
  8
0
  6
CONTINUOUS
 10
-10.650801
 20
-2.6809009999999991
 30
0.0
 11
-10.711
 21
-2.5966990000000001
 31
0.0
  0
LINE
  5
A6
  8
0
  6
CONTINUOUS
 10
-10.711
 20
-2.5966990000000001
 30
0.0
 11
-10.7148
 21
-2.5695990000000002
 31
0.0
  0
LINE
  5
A7
  8
0
  6
CONTINUOUS
 10
-10.473699999999999
 20
-2.7891010000000001
 30
0.0
 11
-10.650801
 21
-2.6809009999999991
 31
0.0
  0
LINE
  5
A8
  8
0
  6
CONTINUOUS
 10
-10.420999999999999
 20
-2.865397999999999
 30
0.0
 11
-10.4587
 21
-2.7981989999999999
 31
0.0
  0
LINE
  5
A9
  8
0
  6
CONTINUOUS
 10
-10.4587
 20
-2.7981989999999999
 30
0.0
 11
-10.473699999999999
 21
-2.7891010000000001
 31
0.0
  0
LINE
  5
AA
  8
0
  6
CONTINUOUS
 10
-10.454901
 20
-2.9384000000000001
 30
0.0
 11
-10.420999999999999
 21
-2.865397999999999
 31
0.0
  0
LINE
  5
AB
  8
0
  6
CONTINUOUS
 10
-10.545299999999999
 20
-2.963902
 30
0.0
 11
-10.454901
 21
-2.9384000000000001
 31
0.0
  0
LINE
  5
AC
  8
0
  6
CONTINUOUS
 10
-10.6206
 20
-2.9384000000000001
 30
0.0
 11
-10.545299999999999
 21
-2.963902
 31
0.0
  0
LINE
  5
AD
  8
0
  6
CONTINUOUS
 10
-10.650801
 20
-2.8620990000000002
 30
0.0
 11
-10.6206
 21
-2.9384000000000001
 31
0.0
  0
LINE
  5
AE
  8
0
  6
CONTINUOUS
 10
-10.677099
 20
-2.9860989999999998
 30
0.0
 11
-10.735099999999999
 21
-2.891899
 31
0.0
  0
LINE
  5
AF
  8
0
  6
CONTINUOUS
 10
-10.735099999999999
 20
-2.891899
 30
0.0
 11
-10.737399999999999
 21
-2.865397999999999
 31
0.0
  0
LINE
  5
B0
  8
0
  6
CONTINUOUS
 10
-10.537800000000001
 20
-3.027099999999999
 30
0.0
 11
-10.6656
 21
-2.9947010000000001
 31
0.0
  0
LINE
  5
B1
  8
0
  6
CONTINUOUS
 10
-10.6656
 20
-2.9947010000000001
 30
0.0
 11
-10.677099
 21
-2.9860989999999998
 31
0.0
  0
LINE
  5
B2
  8
0
  6
CONTINUOUS
 10
-10.3909
 20
-2.9828990000000002
 30
0.0
 11
-10.508801
 21
-3.0260009999999991
 31
0.0
  0
LINE
  5
B3
  8
0
  6
CONTINUOUS
 10
-10.508801
 20
-3.0260009999999991
 30
0.0
 11
-10.537800000000001
 21
-3.027099999999999
 31
0.0
  0
LINE
  5
B4
  8
0
  6
CONTINUOUS
 10
-10.3344
 20
-2.8555980000000001
 30
0.0
 11
-10.369199999999999
 21
-2.961101999999999
 31
0.0
  0
LINE
  5
B5
  8
0
  6
CONTINUOUS
 10
-10.369199999999999
 20
-2.961101999999999
 30
0.0
 11
-10.3909
 21
-2.9828990000000002
 31
0.0
  0
LINE
  5
B6
  8
0
  6
CONTINUOUS
 10
-10.420999999999999
 20
-2.7349009999999989
 30
0.0
 11
-10.343399
 21
-2.8083
 31
0.0
  0
LINE
  5
B7
  8
0
  6
CONTINUOUS
 10
-10.343399
 20
-2.8083
 30
0.0
 11
-10.3344
 21
-2.8555980000000001
 31
0.0
  0
LINE
  5
B8
  8
0
  6
CONTINUOUS
 10
-10.579200999999999
 20
-2.639599
 30
0.0
 11
-10.420999999999999
 21
-2.7349009999999989
 31
0.0
  0
LINE
  5
B9
  8
0
  6
CONTINUOUS
 10
-10.9137
 20
-2.452099
 30
0.0
 11
-10.860398999999999
 21
-2.5465009999999988
 31
0.0
  0
LINE
  5
BA
  8
0
  6
CONTINUOUS
 10
-10.860398999999999
 20
-2.5465009999999988
 30
0.0
 11
-10.857201
 21
-2.5856020000000002
 31
0.0
  0
LINE
  5
BB
  8
0
  6
CONTINUOUS
 10
-10.9137
 20
-2.7191009999999989
 30
0.0
 11
-11.030199
 21
-2.7622990000000001
 31
0.0
  0
LINE
  5
BC
  8
0
  6
CONTINUOUS
 10
-11.030199
 20
-2.7622990000000001
 30
0.0
 11
-11.056801
 21
-2.7634009999999991
 31
0.0
  0
LINE
  5
BD
  8
0
  6
CONTINUOUS
 10
-10.857201
 20
-2.5856020000000002
 30
0.0
 11
-10.891399
 21
-2.6960980000000001
 31
0.0
  0
LINE
  5
BE
  8
0
  6
CONTINUOUS
 10
-10.891399
 20
-2.6960980000000001
 30
0.0
 11
-10.9137
 21
-2.7191009999999989
 31
0.0
  0
LINE
  5
BF
  8
0
  6
CONTINUOUS
 10
-11.056801
 20
-2.4075999999999991
 30
0.0
 11
-10.928300999999999
 21
-2.4411009999999989
 31
0.0
  0
LINE
  5
C0
  8
0
  6
CONTINUOUS
 10
-10.928300999999999
 20
-2.4411009999999989
 30
0.0
 11
-10.9137
 21
-2.452099
 31
0.0
  0
LINE
  5
C1
  8
0
  6
CONTINUOUS
 10
-10.9739
 20
-2.499900999999999
 30
0.0
 11
-11.079399
 21
-2.4678990000000001
 31
0.0
  0
LINE
  5
C2
  8
0
  6
CONTINUOUS
 10
-10.940001000000001
 20
-2.5856020000000002
 30
0.0
 11
-10.972300000000001
 21
-2.5013009999999989
 31
0.0
  0
LINE
  5
C3
  8
0
  6
CONTINUOUS
 10
-10.972300000000001
 20
-2.5013009999999989
 30
0.0
 11
-10.9739
 21
-2.499900999999999
 31
0.0
  0
LINE
  5
C4
  8
0
  6
CONTINUOUS
 10
-10.9739
 20
-2.6713979999999991
 30
0.0
 11
-10.940001000000001
 21
-2.588902
 31
0.0
  0
LINE
  5
C5
  8
0
  6
CONTINUOUS
 10
-10.940001000000001
 20
-2.588902
 30
0.0
 11
-10.940001000000001
 21
-2.5856020000000002
 31
0.0
  0
LINE
  5
C6
  8
0
  6
CONTINUOUS
 10
-11.079399
 20
-2.7030979999999989
 30
0.0
 11
-10.9739
 21
-2.6713979999999991
 31
0.0
  0
LINE
  5
C7
  8
0
  6
CONTINUOUS
 10
-8.2162000000000006
 20
-4.7085989999999986
 30
0.0
 11
-8.0187000000000008
 21
-4.7028999999999987
 31
0.0
  0
LINE
  5
C8
  8
0
  6
CONTINUOUS
 10
-7.4785000000000004
 20
-4.706599999999999
 30
0.0
 11
-7.476500999999999
 21
-4.7108989999999986
 31
0.0
  0
LINE
  5
C9
  8
0
  6
CONTINUOUS
 10
-24.882200000000001
 20
10.539101
 30
0.0
 11
-24.884201000000001
 21
10.543597999999999
 31
0.0
  0
LINE
  5
CA
  8
0
  6
CONTINUOUS
 10
-7.476500999999999
 20
10.543597999999999
 30
0.0
 11
-7.4785000000000004
 21
10.539101
 31
0.0
  0
LINE
  5
CB
  8
0
  6
CONTINUOUS
 10
-24.884201000000001
 20
-4.7108989999999986
 30
0.0
 11
-24.882200000000001
 21
-4.706599999999999
 31
0.0
  0
LINE
  5
CC
  8
0
  6
CONTINUOUS
 10
-16.609200000000001
 20
15.228901
 30
0.0
 11
-16.519600000000001
 21
15.266602000000001
 31
0.0
  0
LINE
  5
CD
  8
0
  6
CONTINUOUS
 10
-16.519600000000001
 20
15.266602000000001
 30
0.0
 11
-16.484100000000002
 21
15.353901
 31
0.0
  0
LINE
  5
CE
  8
0
  6
CONTINUOUS
 10
-16.484100000000002
 20
-10.571099999999999
 30
0.0
 11
-16.521799000000001
 21
-10.481700999999999
 31
0.0
  0
LINE
  5
CF
  8
0
  6
CONTINUOUS
 10
-16.521799000000001
 20
-10.481700999999999
 30
0.0
 11
-16.609200000000001
 21
-10.446097999999999
 31
0.0
  0
LINE
  5
D0
  8
0
  6
CONTINUOUS
 10
-15.876699
 20
15.353901
 30
0.0
 11
-15.839001
 21
15.2644
 31
0.0
  0
LINE
  5
D1
  8
0
  6
CONTINUOUS
 10
-15.839001
 20
15.2644
 30
0.0
 11
-15.7516
 21
15.228901
 31
0.0
  0
LINE
  5
D2
  8
0
  6
CONTINUOUS
 10
-15.7516
 20
-10.446097999999999
 30
0.0
 11
-15.841101
 21
-10.483798999999999
 31
0.0
  0
LINE
  5
D3
  8
0
  6
CONTINUOUS
 10
-15.841101
 20
-10.483798999999999
 30
0.0
 11
-15.876699
 21
-10.571099999999999
 31
0.0
  0
LINE
  5
D4
  8
0
  6
CONTINUOUS
 10
-15.881000999999999
 20
14.607101
 30
0.0
 11
-15.840999999999999
 21
14.5159
 31
0.0
  0
LINE
  5
D5
  8
0
  6
CONTINUOUS
 10
-15.840999999999999
 20
14.5159
 30
0.0
 11
-15.785399999999999
 21
14.4856
 31
0.0
  0
LINE
  5
D6
  8
0
  6
CONTINUOUS
 10
-16.57539899999999
 20
14.4856
 30
0.0
 11
-16.496500000000001
 21
14.544898999999999
 31
0.0
  0
LINE
  5
D7
  8
0
  6
CONTINUOUS
 10
-16.496500000000001
 20
14.544898999999999
 30
0.0
 11
-16.479799
 21
14.607101
 31
0.0
  0
LINE
  5
D8
  8
0
  6
CONTINUOUS
 10
-15.785399999999999
 20
-9.6530989999999992
 30
0.0
 11
-15.864699999999999
 21
-9.7132000000000005
 31
0.0
  0
LINE
  5
D9
  8
0
  6
CONTINUOUS
 10
-15.864699999999999
 20
-9.7132000000000005
 30
0.0
 11
-15.881000999999999
 21
-9.7743990000000007
 31
0.0
  0
LINE
  5
DA
  8
0
  6
CONTINUOUS
 10
-16.479799
 20
-9.7743990000000007
 30
0.0
 11
-16.518899999999999
 21
-9.6839979999999972
 31
0.0
  0
LINE
  5
DB
  8
0
  6
CONTINUOUS
 10
-16.518899999999999
 20
-9.6839979999999972
 30
0.0
 11
-16.57539899999999
 21
-9.6530989999999992
 31
0.0
  0
LINE
  5
DC
  8
0
  6
CONTINUOUS
 10
-24.242901
 20
13.0951
 30
0.0
 11
-23.992901
 21
13.090698
 31
0.0
  0
LINE
  5
DD
  8
0
  6
CONTINUOUS
 10
-8.3680000000000003
 20
-7.0343020000000003
 30
0.0
 11
-8.1180000000000003
 21
-7.0298999999999987
 31
0.0
  0
LINE
  5
DE
  8
0
  6
CONTINUOUS
 10
-24.242901
 20
-7.0298999999999987
 30
0.0
 11
-23.992901
 21
-7.0343020000000003
 31
0.0
  0
LINE
  5
DF
  8
0
  6
CONTINUOUS
 10
-15.881000999999999
 20
15.001899999999999
 30
0.0
 11
-15.876699
 21
15.353901
 31
0.0
  0
LINE
  5
E0
  8
0
  6
CONTINUOUS
 10
-8.3680000000000003
 20
13.090698
 30
0.0
 11
-8.1180000000000003
 21
13.0951
 31
0.0
  0
LINE
  5
E1
  8
0
  6
CONTINUOUS
 10
-8.1180000000000003
 20
-7.6374019999999998
 30
0.0
 11
-8.3680000000000003
 21
-7.6329989999999999
 31
0.0
  0
LINE
  5
E2
  8
0
  6
CONTINUOUS
 10
-16.479799
 20
-10.219101
 30
0.0
 11
-16.484100000000002
 21
-10.571099999999999
 31
0.0
  0
LINE
  5
E3
  8
0
  6
CONTINUOUS
 10
-24.884201000000001
 20
10.543597999999999
 30
0.0
 11
-24.8904
 21
10.6031
 31
0.0
  0
LINE
  5
E4
  8
0
  6
CONTINUOUS
 10
-24.884201000000001
 20
-4.7108989999999986
 30
0.0
 11
-24.8904
 21
-4.7704009999999997
 31
0.0
  0
LINE
  5
E5
  8
0
  6
CONTINUOUS
 10
-15.881000999999999
 20
-10.219101
 30
0.0
 11
-15.876699
 21
-10.571099999999999
 31
0.0
  0
LINE
  5
E6
  8
0
  6
CONTINUOUS
 10
-16.479799
 20
15.001899999999999
 30
0.0
 11
-16.484100000000002
 21
15.353901
 31
0.0
  0
LINE
  5
E7
  8
0
  6
CONTINUOUS
 10
-23.992901
 20
-7.6329989999999999
 30
0.0
 11
-24.242901
 21
-7.6374019999999998
 31
0.0
  0
LINE
  5
E8
  8
0
  6
CONTINUOUS
 10
-7.476500999999999
 20
10.543597999999999
 30
0.0
 11
-7.4705009999999987
 21
10.6031
 31
0.0
  0
LINE
  5
E9
  8
0
  6
CONTINUOUS
 10
-7.476500999999999
 20
-4.7108989999999986
 30
0.0
 11
-7.4705009999999987
 21
-4.7704009999999997
 31
0.0
  0
LINE
  5
EA
  8
0
  6
CONTINUOUS
 10
-24.772998999999999
 20
16.383400000000002
 30
0.0
 11
-24.964300000000001
 21
16.345402
 31
0.0
  0
LINE
  5
EB
  8
0
  6
CONTINUOUS
 10
-24.964300000000001
 20
16.345402
 30
0.0
 11
-25.126301000000002
 21
16.237099000000001
 31
0.0
  0
LINE
  5
EC
  8
0
  6
CONTINUOUS
 10
-25.126301000000002
 20
16.237099000000001
 30
0.0
 11
-25.2346
 21
16.075099999999999
 31
0.0
  0
LINE
  5
ED
  8
0
  6
CONTINUOUS
 10
-25.2346
 20
16.075099999999999
 30
0.0
 11
-25.272600000000001
 21
15.883900000000001
 31
0.0
  0
LINE
  5
EE
  8
0
  6
CONTINUOUS
 10
-16.300899999999999
 20
16.258597999999999
 30
0.0
 11
-16.3386
 21
16.347999999999999
 31
0.0
  0
LINE
  5
EF
  8
0
  6
CONTINUOUS
 10
-16.3386
 20
16.347999999999999
 30
0.0
 11
-16.425799999999999
 21
16.383400000000002
 31
0.0
  0
LINE
  5
F0
  8
0
  6
CONTINUOUS
 10
-15.934900000000001
 20
16.383400000000002
 30
0.0
 11
-16.0243
 21
16.345797999999998
 31
0.0
  0
LINE
  5
F1
  8
0
  6
CONTINUOUS
 10
-16.0243
 20
16.345797999999998
 30
0.0
 11
-16.059899999999999
 21
16.258597999999999
 31
0.0
  0
LINE
  5
F2
  8
0
  6
CONTINUOUS
 10
-7.0881999999999987
 20
15.883801
 30
0.0
 11
-7.1262020000000001
 21
16.075001
 31
0.0
  0
LINE
  5
F3
  8
0
  6
CONTINUOUS
 10
-7.1262020000000001
 20
16.075001
 30
0.0
 11
-7.234500999999999
 21
16.237099000000001
 31
0.0
  0
LINE
  5
F4
  8
0
  6
CONTINUOUS
 10
-7.234500999999999
 20
16.237099000000001
 30
0.0
 11
-7.3964999999999987
 21
16.345402
 31
0.0
  0
LINE
  5
F5
  8
0
  6
CONTINUOUS
 10
-7.3964999999999987
 20
16.345402
 30
0.0
 11
-7.587699999999999
 21
16.383400000000002
 31
0.0
  0
LINE
  5
F6
  8
0
  6
CONTINUOUS
 10
-7.2131999999999987
 20
12.911799999999999
 30
0.0
 11
-7.123797999999999
 21
12.949401999999999
 31
0.0
  0
LINE
  5
F7
  8
0
  6
CONTINUOUS
 10
-7.123797999999999
 20
12.949401999999999
 30
0.0
 11
-7.088099999999999
 21
13.036598
 31
0.0
  0
LINE
  5
F8
  8
0
  6
CONTINUOUS
 10
-7.088099999999999
 20
12.545897999999999
 30
0.0
 11
-7.1258009999999992
 21
12.635399
 31
0.0
  0
LINE
  5
F9
  8
0
  6
CONTINUOUS
 10
-7.1258009999999992
 20
12.635399
 30
0.0
 11
-7.2131999999999987
 21
12.670897999999999
 31
0.0
  0
LINE
  5
FA
  8
0
  6
CONTINUOUS
 10
-7.2131999999999987
 20
-7.2131999999999987
 30
0.0
 11
-7.123797999999999
 21
-7.175597999999999
 31
0.0
  0
LINE
  5
FB
  8
0
  6
CONTINUOUS
 10
-7.123797999999999
 20
-7.175597999999999
 30
0.0
 11
-7.088099999999999
 21
-7.0884020000000003
 31
0.0
  0
LINE
  5
FC
  8
0
  6
CONTINUOUS
 10
-7.088099999999999
 20
-7.5791019999999998
 30
0.0
 11
-7.1258009999999992
 21
-7.4896009999999986
 31
0.0
  0
LINE
  5
FD
  8
0
  6
CONTINUOUS
 10
-7.1258009999999992
 20
-7.4896009999999986
 30
0.0
 11
-7.2131999999999987
 21
-7.4541019999999998
 31
0.0
  0
LINE
  5
FE
  8
0
  6
CONTINUOUS
 10
-7.5801009999999991
 20
-11.552401
 30
0.0
 11
-7.3912009999999988
 21
-11.5121
 31
0.0
  0
LINE
  5
FF
  8
0
  6
CONTINUOUS
 10
-7.3912009999999988
 20
-11.5121
 30
0.0
 11
-7.2317009999999993
 21
-11.403299000000001
 31
0.0
  0
LINE
  5
100
  8
0
  6
CONTINUOUS
 10
-7.2317009999999993
 20
-11.403299000000001
 30
0.0
 11
-7.1230999999999991
 21
-11.236499999999999
 31
0.0
  0
LINE
  5
101
  8
0
  6
CONTINUOUS
 10
-7.1230999999999991
 20
-11.236499999999999
 30
0.0
 11
-7.0881999999999987
 21
-11.052600999999999
 31
0.0
  0
LINE
  5
102
  8
0
  6
CONTINUOUS
 10
-16.059899999999999
 20
-11.424200000000001
 30
0.0
 11
-16.022499
 21
-11.513399
 31
0.0
  0
LINE
  5
103
  8
0
  6
CONTINUOUS
 10
-16.022499
 20
-11.513399
 30
0.0
 11
-15.938801
 21
-11.549200000000001
 31
0.0
  0
LINE
  5
104
  8
0
  6
CONTINUOUS
 10
-16.422198999999999
 20
-11.549200000000001
 30
0.0
 11
-16.334101
 21
-11.5091
 31
0.0
  0
LINE
  5
105
  8
0
  6
CONTINUOUS
 10
-16.334101
 20
-11.5091
 30
0.0
 11
-16.300899999999999
 21
-11.424101
 31
0.0
  0
LINE
  5
106
  8
0
  6
CONTINUOUS
 10
-25.272600000000001
 20
-11.0527
 30
0.0
 11
-25.235401
 21
-11.242201
 31
0.0
  0
LINE
  5
107
  8
0
  6
CONTINUOUS
 10
-25.235401
 20
-11.242201
 30
0.0
 11
-25.129100999999999
 21
-11.4034
 31
0.0
  0
LINE
  5
108
  8
0
  6
CONTINUOUS
 10
-25.129100999999999
 20
-11.4034
 30
0.0
 11
-24.964001
 21
-11.5145
 31
0.0
  0
LINE
  5
109
  8
0
  6
CONTINUOUS
 10
-24.964001
 20
-11.5145
 30
0.0
 11
-24.780701000000001
 21
-11.552401
 31
0.0
  0
LINE
  5
10A
  8
0
  6
CONTINUOUS
 10
-25.147600000000001
 20
-7.4541019999999998
 30
0.0
 11
-25.237099000000001
 21
-7.4917979999999993
 31
0.0
  0
LINE
  5
10B
  8
0
  6
CONTINUOUS
 10
-25.237099000000001
 20
-7.4917979999999993
 30
0.0
 11
-25.272600000000001
 21
-7.5791019999999998
 31
0.0
  0
LINE
  5
10C
  8
0
  6
CONTINUOUS
 10
-25.272600000000001
 20
-7.0884020000000003
 30
0.0
 11
-25.234901000000001
 21
-7.1776999999999989
 31
0.0
  0
LINE
  5
10D
  8
0
  6
CONTINUOUS
 10
-25.234901000000001
 20
-7.1776999999999989
 30
0.0
 11
-25.147600000000001
 21
-7.2131999999999987
 31
0.0
  0
LINE
  5
10E
  8
0
  6
CONTINUOUS
 10
-25.147600000000001
 20
12.670897999999999
 30
0.0
 11
-25.237099000000001
 21
12.633202000000001
 31
0.0
  0
LINE
  5
10F
  8
0
  6
CONTINUOUS
 10
-25.237099000000001
 20
12.633202000000001
 30
0.0
 11
-25.272600000000001
 21
12.545897999999999
 31
0.0
  0
LINE
  5
110
  8
0
  6
CONTINUOUS
 10
-25.272600000000001
 20
13.036598
 30
0.0
 11
-25.234901000000001
 21
12.9473
 31
0.0
  0
LINE
  5
111
  8
0
  6
CONTINUOUS
 10
-25.234901000000001
 20
12.9473
 30
0.0
 11
-25.147600000000001
 21
12.911799999999999
 31
0.0
  0
LINE
  5
112
  8
0
  6
CONTINUOUS
 10
-16.059899999999999
 20
14.427101
 30
0.0
 11
-16.000999
 21
14.277100000000001
 31
0.0
  0
LINE
  5
113
  8
0
  6
CONTINUOUS
 10
-16.000999
 20
14.277100000000001
 30
0.0
 11
-15.936999999999999
 21
14.2094
 31
0.0
  0
LINE
  5
114
  8
0
  6
CONTINUOUS
 10
-16.300899999999999
 20
-9.594600999999999
 30
0.0
 11
-16.359698999999999
 21
-9.4444009999999992
 31
0.0
  0
LINE
  5
115
  8
0
  6
CONTINUOUS
 10
-16.359698999999999
 20
-9.4444009999999992
 30
0.0
 11
-16.4237
 21
-9.3765979999999995
 31
0.0
  0
LINE
  5
116
  8
0
  6
CONTINUOUS
 10
-16.300899999999999
 20
14.427101
 30
0.0
 11
-16.359698999999999
 21
14.277100000000001
 31
0.0
  0
LINE
  5
117
  8
0
  6
CONTINUOUS
 10
-16.359698999999999
 20
14.277100000000001
 30
0.0
 11
-16.4237
 21
14.2094
 31
0.0
  0
LINE
  5
118
  8
0
  6
CONTINUOUS
 10
-16.059899999999999
 20
-9.594600999999999
 30
0.0
 11
-16.001100999999998
 21
-9.4444009999999992
 31
0.0
  0
LINE
  5
119
  8
0
  6
CONTINUOUS
 10
-16.001100999999998
 20
-9.4444009999999992
 30
0.0
 11
-15.936999999999999
 21
-9.3765979999999995
 31
0.0
  0
LINE
  5
11A
  8
0
  6
CONTINUOUS
 10
-25.830400000000001
 20
-11.758599999999999
 30
0.0
 11
-25.7925
 21
-11.822001
 31
0.0
  0
LINE
  5
11B
  8
0
  6
CONTINUOUS
 10
-25.7925
 20
-11.822001
 30
0.0
 11
-25.748901
 21
-11.833599
 31
0.0
  0
LINE
  5
11C
  8
0
  6
CONTINUOUS
 10
-6.6120000000000001
 20
-11.833599
 30
0.0
 11
-6.5420989999999994
 21
-11.797199000000001
 31
0.0
  0
LINE
  5
11D
  8
0
  6
CONTINUOUS
 10
-6.5420989999999994
 20
-11.797199000000001
 30
0.0
 11
-6.5304989999999989
 21
-11.758599999999999
 31
0.0
  0
LINE
  5
11E
  8
0
  6
CONTINUOUS
 10
-16.872699999999998
 20
12.3064
 30
0.0
 11
-16.800501000000001
 21
12.3283
 31
0.0
  0
LINE
  5
11F
  8
0
  6
CONTINUOUS
 10
-16.800501000000001
 20
12.3283
 30
0.0
 11
-16.783501000000001
 21
12.400002000000001
 31
0.0
  0
LINE
  5
120
  8
0
  6
CONTINUOUS
 10
-16.783501000000001
 20
12.400002000000001
 30
0.0
 11
-16.794001000000002
 21
12.422599999999999
 31
0.0
  0
LINE
  5
121
  8
0
  6
CONTINUOUS
 10
-16.8748
 20
12.570599
 30
0.0
 11
-16.794001000000002
 21
12.422599999999999
 31
0.0
  0
LINE
  5
122
  8
0
  6
CONTINUOUS
 10
-16.8748
 20
13.1371
 30
0.0
 11
-16.7805
 21
13.334099
 31
0.0
  0
LINE
  5
123
  8
0
  6
CONTINUOUS
 10
-16.7805
 20
13.334099
 30
0.0
 11
-16.822500000000002
 21
13.395401
 31
0.0
  0
LINE
  5
124
  8
0
  6
CONTINUOUS
 10
-16.822500000000002
 20
13.395401
 30
0.0
 11
-16.872699999999998
 21
13.4011
 31
0.0
  0
LINE
  5
125
  8
0
  6
CONTINUOUS
 10
-15.488099999999999
 20
13.4011
 30
0.0
 11
-15.560801
 21
13.3787
 31
0.0
  0
LINE
  5
126
  8
0
  6
CONTINUOUS
 10
-15.560801
 20
13.3787
 30
0.0
 11
-15.577
 21
13.306998999999999
 31
0.0
  0
LINE
  5
127
  8
0
  6
CONTINUOUS
 10
-15.577
 20
13.306998999999999
 30
0.0
 11
-15.566700000000001
 21
13.285099000000001
 31
0.0
  0
LINE
  5
128
  8
0
  6
CONTINUOUS
 10
-15.485901
 20
13.1371
 30
0.0
 11
-15.566700000000001
 21
13.285099000000001
 31
0.0
  0
LINE
  5
129
  8
0
  6
CONTINUOUS
 10
-15.485901
 20
12.570599
 30
0.0
 11
-15.5802
 21
12.3736
 31
0.0
  0
LINE
  5
12A
  8
0
  6
CONTINUOUS
 10
-15.5802
 20
12.3736
 30
0.0
 11
-15.5383
 21
12.312099
 31
0.0
  0
LINE
  5
12B
  8
0
  6
CONTINUOUS
 10
-15.5383
 20
12.312099
 30
0.0
 11
-15.488099999999999
 21
12.3064
 31
0.0
  0
LINE
  5
12C
  8
0
  6
CONTINUOUS
 10
-15.485901
 20
-7.7378999999999989
 30
0.0
 11
-15.566700000000001
 21
-7.5899009999999993
 31
0.0
  0
LINE
  5
12D
  8
0
  6
CONTINUOUS
 10
-15.485901
 20
-8.3044009999999986
 30
0.0
 11
-15.566700000000001
 21
-8.4524000000000008
 31
0.0
  0
LINE
  5
12E
  8
0
  6
CONTINUOUS
 10
-15.488099999999999
 20
-7.4739000000000004
 30
0.0
 11
-15.560801
 21
-7.4962999999999989
 31
0.0
  0
LINE
  5
12F
  8
0
  6
CONTINUOUS
 10
-15.560801
 20
-7.4962999999999989
 30
0.0
 11
-15.577
 21
-7.5680009999999989
 31
0.0
  0
LINE
  5
130
  8
0
  6
CONTINUOUS
 10
-15.577
 20
-7.5680009999999989
 30
0.0
 11
-15.566700000000001
 21
-7.5899009999999993
 31
0.0
  0
LINE
  5
131
  8
0
  6
CONTINUOUS
 10
-15.566700000000001
 20
-8.4524000000000008
 30
0.0
 11
-15.573700000000001
 21
-8.5264019999999991
 31
0.0
  0
LINE
  5
132
  8
0
  6
CONTINUOUS
 10
-15.573700000000001
 20
-8.5264019999999991
 30
0.0
 11
-15.514799
 21
-8.5693020000000004
 31
0.0
  0
LINE
  5
133
  8
0
  6
CONTINUOUS
 10
-15.514799
 20
-8.5693020000000004
 30
0.0
 11
-15.488099999999999
 21
-8.5685999999999982
 31
0.0
  0
LINE
  5
134
  8
0
  6
CONTINUOUS
 10
-16.8748
 20
-7.7378999999999989
 30
0.0
 11
-16.7805
 21
-7.540900999999999
 31
0.0
  0
LINE
  5
135
  8
0
  6
CONTINUOUS
 10
-16.7805
 20
-7.540900999999999
 30
0.0
 11
-16.822500000000002
 21
-7.4795990000000003
 31
0.0
  0
LINE
  5
136
  8
0
  6
CONTINUOUS
 10
-16.822500000000002
 20
-7.4795990000000003
 30
0.0
 11
-16.872699999999998
 21
-7.4739000000000004
 31
0.0
  0
LINE
  5
137
  8
0
  6
CONTINUOUS
 10
-16.872699999999998
 20
-8.5685999999999982
 30
0.0
 11
-16.800501000000001
 21
-8.5466999999999995
 31
0.0
  0
LINE
  5
138
  8
0
  6
CONTINUOUS
 10
-16.800501000000001
 20
-8.5466999999999995
 30
0.0
 11
-16.783501000000001
 21
-8.4749979999999994
 31
0.0
  0
LINE
  5
139
  8
0
  6
CONTINUOUS
 10
-16.783501000000001
 20
-8.4749979999999994
 30
0.0
 11
-16.794001000000002
 21
-8.4524000000000008
 31
0.0
  0
LINE
  5
13A
  8
0
  6
CONTINUOUS
 10
-16.8748
 20
-8.3044009999999986
 30
0.0
 11
-16.794001000000002
 21
-8.4524000000000008
 31
0.0
  0
LINE
  5
13B
  8
0
  6
CONTINUOUS
 10
-17.055401
 20
-12.9252
 30
0.0
 11
-17.091801
 21
-12.857100000000001
 31
0.0
  0
LINE
  5
13C
  8
0
  6
CONTINUOUS
 10
-17.091801
 20
-12.857100000000001
 30
0.0
 11
-17.130400000000002
 21
-12.845800000000001
 31
0.0
  0
LINE
  5
13D
  8
0
  6
CONTINUOUS
 10
-15.230399999999999
 20
-12.845800000000001
 30
0.0
 11
-15.294200999999999
 21
-12.883499
 31
0.0
  0
LINE
  5
13E
  8
0
  6
CONTINUOUS
 10
-15.294200999999999
 20
-12.883499
 30
0.0
 11
-15.305401
 21
-12.9252
 31
0.0
  0
LINE
  5
13F
  8
0
  6
CONTINUOUS
 10
-4.9303019999999993
 20
18.291301999999991
 30
0.0
 11
-4.9690019999999988
 21
18.424999
 31
0.0
  0
LINE
  5
140
  8
0
  6
CONTINUOUS
 10
-4.9690019999999988
 20
18.424999
 30
0.0
 11
-5.0732989999999987
 21
18.517299999999999
 31
0.0
  0
LINE
  5
141
  8
0
  6
CONTINUOUS
 10
-5.0732989999999987
 20
18.517299999999999
 30
0.0
 11
-5.1801989999999991
 21
18.541302000000002
 31
0.0
  0
LINE
  5
142
  8
0
  6
CONTINUOUS
 10
-5.1803019999999993
 20
-13.7087
 30
0.0
 11
-5.0465999999999989
 21
-13.67
 31
0.0
  0
LINE
  5
143
  8
0
  6
CONTINUOUS
 10
-5.0465999999999989
 20
-13.67
 30
0.0
 11
-4.954299999999999
 21
-13.565799999999999
 31
0.0
  0
LINE
  5
144
  8
0
  6
CONTINUOUS
 10
-4.954299999999999
 20
-13.565799999999999
 30
0.0
 11
-4.9303019999999993
 21
-13.4589
 31
0.0
  0
LINE
  5
145
  8
0
  6
CONTINUOUS
 10
-27.430401
 20
-13.4587
 30
0.0
 11
-27.391701000000001
 21
-13.592501
 31
0.0
  0
LINE
  5
146
  8
0
  6
CONTINUOUS
 10
-27.391701000000001
 20
-13.592501
 30
0.0
 11
-27.287399000000001
 21
-13.684699999999999
 31
0.0
  0
LINE
  5
147
  8
0
  6
CONTINUOUS
 10
-27.287399000000001
 20
-13.684699999999999
 30
0.0
 11
-27.180499999999999
 21
-13.7087
 31
0.0
  0
LINE
  5
148
  8
0
  6
CONTINUOUS
 10
-15.305401
 20
-13.261200000000001
 30
0.0
 11
-15.2682
 21
-13.3239
 31
0.0
  0
LINE
  5
149
  8
0
  6
CONTINUOUS
 10
-15.2682
 20
-13.3239
 30
0.0
 11
-15.230399999999999
 21
-13.3337
 31
0.0
  0
LINE
  5
14A
  8
0
  6
CONTINUOUS
 10
-27.180401
 20
18.541302000000002
 30
0.0
 11
-27.314201000000001
 21
18.502499
 31
0.0
  0
LINE
  5
14B
  8
0
  6
CONTINUOUS
 10
-27.314201000000001
 20
18.502499
 30
0.0
 11
-27.406399
 21
18.398299999999999
 31
0.0
  0
LINE
  5
14C
  8
0
  6
CONTINUOUS
 10
-27.406399
 20
18.398299999999999
 30
0.0
 11
-27.430401
 21
18.291401
 31
0.0
  0
LINE
  5
14D
  8
0
  6
CONTINUOUS
 10
-17.130400000000002
 20
-13.3337
 30
0.0
 11
-17.065100000000001
 21
-13.297001
 31
0.0
  0
LINE
  5
14E
  8
0
  6
CONTINUOUS
 10
-17.065100000000001
 20
-13.297001
 30
0.0
 11
-17.055401
 21
-13.261200000000001
 31
0.0
  0
LINE
  5
14F
  8
0
  6
CONTINUOUS
 10
-5.5553019999999993
 20
-13.3337
 30
0.0
 11
-5.4215999999999989
 21
-13.295
 31
0.0
  0
LINE
  5
150
  8
0
  6
CONTINUOUS
 10
-5.4215999999999989
 20
-13.295
 30
0.0
 11
-5.329299999999999
 21
-13.190799999999999
 31
0.0
  0
LINE
  5
151
  8
0
  6
CONTINUOUS
 10
-5.329299999999999
 20
-13.190799999999999
 30
0.0
 11
-5.3053019999999993
 21
-13.0839
 31
0.0
  0
LINE
  5
152
  8
0
  6
CONTINUOUS
 10
-5.3053019999999993
 20
17.916302000000002
 30
0.0
 11
-5.3440019999999988
 21
18.049999
 31
0.0
  0
LINE
  5
153
  8
0
  6
CONTINUOUS
 10
-5.3440019999999988
 20
18.049999
 30
0.0
 11
-5.4482989999999987
 21
18.142299999999999
 31
0.0
  0
LINE
  5
154
  8
0
  6
CONTINUOUS
 10
-5.4482989999999987
 20
18.142299999999999
 30
0.0
 11
-5.5551989999999991
 21
18.166302000000002
 31
0.0
  0
LINE
  5
155
  8
0
  6
CONTINUOUS
 10
-26.805401
 20
18.166302000000002
 30
0.0
 11
-26.939201000000001
 21
18.127499
 31
0.0
  0
LINE
  5
156
  8
0
  6
CONTINUOUS
 10
-26.939201000000001
 20
18.127499
 30
0.0
 11
-27.031399
 21
18.023299999999999
 31
0.0
  0
LINE
  5
157
  8
0
  6
CONTINUOUS
 10
-27.031399
 20
18.023299999999999
 30
0.0
 11
-27.055401
 21
17.916401
 31
0.0
  0
LINE
  5
158
  8
0
  6
CONTINUOUS
 10
-27.055401
 20
-13.0837
 30
0.0
 11
-27.016701000000001
 21
-13.217501
 31
0.0
  0
LINE
  5
159
  8
0
  6
CONTINUOUS
 10
-27.016701000000001
 20
-13.217501
 30
0.0
 11
-26.912399000000001
 21
-13.309699999999999
 31
0.0
  0
LINE
  5
15A
  8
0
  6
CONTINUOUS
 10
-26.912399000000001
 20
-13.309699999999999
 30
0.0
 11
-26.805499999999999
 21
-13.3337
 31
0.0
  0
ARC
  5
15B
  8
0
  6
CONTINUOUS
 10
-7.5954670000000002
 20
13.226611999999999
 30
0.0
 40
0.125041
 50
270.05398600000001
 51
0.0
  0
ARC
  5
15C
  8
0
  6
CONTINUOUS
 10
-15.744989
 20
15.876362
 30
0.0
 40
0.125042
 50
90.028000000000006
 51
179.945007
  0
ARC
  5
15D
  8
0
  6
CONTINUOUS
 10
-16.615765
 20
15.876362
 30
0.0
 40
0.125042
 50
0.0
 51
89.971999999999994
  0
ARC
  5
15E
  8
0
  6
CONTINUOUS
 10
-24.765339000000001
 20
13.226611999999999
 30
0.0
 40
0.125041
 50
180.02799999999991
 51
269.94601399999999
  0
ARC
  5
15F
  8
0
  6
CONTINUOUS
 10
-24.765339000000001
 20
12.355862
 30
0.0
 40
0.125042
 50
90.054397999999992
 51
179.97200000000001
  0
ARC
  5
160
  8
0
  6
CONTINUOUS
 10
-24.765339000000001
 20
-6.8983879999999997
 30
0.0
 40
0.12504
 50
180.02699299999989
 51
269.94601399999999
  0
ARC
  5
161
  8
0
  6
CONTINUOUS
 10
-7.5954670000000002
 20
12.355862
 30
0.0
 40
0.125042
 50
0.0
 51
89.945601999999994
  0
ARC
  5
162
  8
0
  6
CONTINUOUS
 10
-7.5954670000000002
 20
-6.8983879999999997
 30
0.0
 40
0.12504
 50
270.05398600000001
 51
0.0
  0
ARC
  5
163
  8
0
  6
CONTINUOUS
 10
-7.5954670000000002
 20
-7.7691379999999999
 30
0.0
 40
0.125042
 50
0.0
 51
89.945601999999994
  0
ARC
  5
164
  8
0
  6
CONTINUOUS
 10
-15.744989
 20
-11.047138
 30
0.0
 40
0.125041
 50
180.05299400000001
 51
268.29800399999999
  0
ARC
  5
165
  8
0
  6
CONTINUOUS
 10
-16.615765
 20
-11.047138
 30
0.0
 40
0.125041
 50
271.70199600000001
 51
0.0
  0
ARC
  5
166
  8
0
  6
CONTINUOUS
 10
-24.765339000000001
 20
-7.7691379999999999
 30
0.0
 40
0.125042
 50
90.054397999999992
 51
179.97200000000001
  0
ARC
  5
167
  8
0
  6
CONTINUOUS
 10
-26.240490000000001
 20
-12.768888
 30
0.0
 40
0.077031
 50
182.53799399999991
 51
267.46099900000002
  0
ARC
  5
168
  8
0
  6
CONTINUOUS
 10
-26.240490000000001
 20
17.60136
 30
0.0
 40
0.077031
 50
92.538902000000022
 51
177.462006
  0
ARC
  5
169
  8
0
  6
CONTINUOUS
 10
-6.1202160000000001
 20
17.60136
 30
0.0
 40
0.077031
 50
2.538149999999999
 51
87.461097999999993
  0
ARC
  5
16A
  8
0
  6
CONTINUOUS
 10
-6.1202160000000001
 20
-12.768888
 30
0.0
 40
0.077031
 50
272.53900099999998
 51
357.46200599999997
  0
CIRCLE
  5
16B
  8
0
  6
CONTINUOUS
 10
-16.180389000000002
 20
2.666363
 30
0.0
 40
6.375
  0
CIRCLE
  5
16C
  8
0
  6
CONTINUOUS
 10
-10.805389
 20
-3.0836369999999991
 30
0.0
 40
1.0749999999999991
  0
CIRCLE
  5
16D
  8
0
  6
CONTINUOUS
 10
-10.805389
 20
-3.0836369999999991
 30
0.0
 40
1.0
  0
ARC
  5
16E
  8
0
  6
CONTINUOUS
 10
-23.992889000000002
 20
14.978863
 30
0.0
 40
0.25
 50
90.0
 51
180.0
  0
ARC
  5
16F
  8
0
  6
CONTINUOUS
 10
-11.94289
 20
12.791363
 30
0.0
 40
0.625
 50
90.0
 51
270.0
  0
ARC
  5
170
  8
0
  6
CONTINUOUS
 10
-10.69289
 20
-7.9586369999999986
 30
0.0
 40
0.625
 50
180.0
 51
0.0
  0
ARC
  5
171
  8
0
  6
CONTINUOUS
 10
-8.3679659999999991
 20
-10.19614
 30
0.0
 40
0.25
 50
270.0
 51
0.0
  0
ARC
  5
172
  8
0
  6
CONTINUOUS
 10
-20.417891000000001
 20
12.791363
 30
0.0
 40
0.625
 50
270.0
 51
90.0
  0
ARC
  5
173
  8
0
  6
CONTINUOUS
 10
-10.69289
 20
12.791363
 30
0.0
 40
0.625
 50
270.0
 51
90.0
  0
ARC
  5
174
  8
0
  6
CONTINUOUS
 10
-8.3679659999999991
 20
14.978863
 30
0.0
 40
0.25
 50
0.0
 51
90.0
  0
ARC
  5
175
  8
0
  6
CONTINUOUS
 10
-21.667891000000001
 20
-6.7086369999999986
 30
0.0
 40
0.625
 50
0.0
 51
180.0
  0
ARC
  5
176
  8
0
  6
CONTINUOUS
 10
-21.667891000000001
 20
12.791363
 30
0.0
 40
0.625
 50
90.0
 51
270.0
  0
ARC
  5
177
  8
0
  6
CONTINUOUS
 10
-23.992889000000002
 20
-4.9586370000000004
 30
0.0
 40
0.25
 50
90.0
 51
180.0
  0
ARC
  5
178
  8
0
  6
CONTINUOUS
 10
-8.3679659999999991
 20
-4.9586370000000004
 30
0.0
 40
0.25
 50
0.0
 51
90.0
  0
ARC
  5
179
  8
0
  6
CONTINUOUS
 10
-10.69289
 20
-6.7086369999999986
 30
0.0
 40
0.625
 50
0.0
 51
180.0
  0
ARC
  5
17A
  8
0
  6
CONTINUOUS
 10
-21.667891000000001
 20
-7.9586369999999986
 30
0.0
 40
0.625
 50
180.0
 51
0.0
  0
ARC
  5
17B
  8
0
  6
CONTINUOUS
 10
-23.992889000000002
 20
-10.19614
 30
0.0
 40
0.25
 50
180.0
 51
270.0
  0
ARC
  5
17C
  8
0
  6
CONTINUOUS
 10
-21.667891000000001
 20
-6.7086369999999986
 30
0.0
 40
1.0749999999999991
 50
0.0
 51
180.0
  0
ARC
  5
17D
  8
0
  6
CONTINUOUS
 10
-21.667891000000001
 20
-7.9586369999999986
 30
0.0
 40
1.0749999999999991
 50
180.0
 51
0.0
  0
ARC
  5
17E
  8
0
  6
CONTINUOUS
 10
-10.69289
 20
-6.7086369999999986
 30
0.0
 40
1.0749999999999991
 50
0.0
 51
180.0
  0
ARC
  5
17F
  8
0
  6
CONTINUOUS
 10
-10.69289
 20
-7.9586369999999986
 30
0.0
 40
1.0749999999999991
 50
180.0
 51
0.0
  0
ARC
  5
180
  8
0
  6
CONTINUOUS
 10
-20.417891000000001
 20
12.791363
 30
0.0
 40
1.0749999999999991
 50
270.0
 51
90.0
  0
ARC
  5
181
  8
0
  6
CONTINUOUS
 10
-21.667891000000001
 20
12.791363
 30
0.0
 40
1.0749999999999991
 50
90.0
 51
270.0
  0
ARC
  5
182
  8
0
  6
CONTINUOUS
 10
-10.69289
 20
12.791363
 30
0.0
 40
1.0749999999999991
 50
270.0
 51
90.0
  0
ARC
  5
183
  8
0
  6
CONTINUOUS
 10
-11.94289
 20
12.791363
 30
0.0
 40
1.0749999999999991
 50
90.0
 51
270.0
  0
ARC
  5
184
  8
0
  6
CONTINUOUS
 10
-8.3679659999999991
 20
10.291363
 30
0.0
 40
0.25
 50
270.0
 51
0.0
  0
ARC
  5
185
  8
0
  6
CONTINUOUS
 10
-23.992889000000002
 20
10.291363
 30
0.0
 40
0.25
 50
180.0
 51
270.0
  0
ARC
  5
186
  8
0
  6
CONTINUOUS
 10
-16.180389000000002
 20
12.853863
 30
0.0
 40
1.6789149999999999
 50
103.60700199999999
 51
76.392899
  0
ARC
  5
187
  8
0
  6
CONTINUOUS
 10
-16.180389000000002
 20
-8.0211369999999995
 30
0.0
 40
1.6789149999999999
 50
283.60699499999998
 51
256.39300500000002
  0
CIRCLE
  5
188
  8
0
  6
CONTINUOUS
 10
-16.180389000000002
 20
-8.0211369999999995
 30
0.0
 40
0.625
  0
CIRCLE
  5
189
  8
0
  6
CONTINUOUS
 10
-16.180389000000002
 20
12.853863
 30
0.0
 40
0.625
  0
ARC
  5
18A
  8
0
  6
CONTINUOUS
 10
-16.180389000000002
 20
12.853863
 30
0.0
 40
0.75
 50
215.09700000000001
 51
324.90301499999998
  0
ARC
  5
18B
  8
0
  6
CONTINUOUS
 10
-16.180389000000002
 20
12.853863
 30
0.0
 40
0.75
 50
35.096801999999997
 51
144.90299999999999
  0
ARC
  5
18C
  8
0
  6
CONTINUOUS
 10
-16.180389000000002
 20
-8.0211369999999995
 30
0.0
 40
0.75
 50
35.096801999999997
 51
144.90299999999999
  0
ARC
  5
18D
  8
0
  6
CONTINUOUS
 10
-16.180389000000002
 20
-8.0211369999999995
 30
0.0
 40
0.75
 50
215.09700000000001
 51
324.90301499999998
  0
ARC
  5
18E
  8
0
  6
CONTINUOUS
 10
-16.428039999999999
 20
-9.629391
 30
0.0
 40
0.125014
 50
57.36099999999999
 51
81.230400000000003
  0
ARC
  5
18F
  8
0
  6
CONTINUOUS
 10
-24.580390999999999
 20
15.94136
 30
0.0
 40
1.25
 50
90.0
 51
180.0
  0
ARC
  5
190
  8
0
  6
CONTINUOUS
 10
-7.7804640000000003
 20
15.94136
 30
0.0
 40
1.25
 50
0.0
 51
90.0
  0
ARC
  5
191
  8
0
  6
CONTINUOUS
 10
-16.180389000000002
 20
-8.0211369999999995
 30
0.0
 40
0.75
 50
337.80801400000001
 51
22.191600999999999
  0
ARC
  5
192
  8
0
  6
CONTINUOUS
 10
-16.180389000000002
 20
-8.0211369999999995
 30
0.0
 40
0.75
 50
157.807999
 51
202.192001
  0
ARC
  5
193
  8
0
  6
CONTINUOUS
 10
-6.9054640000000003
 20
-11.758637999999999
 30
0.0
 40
0.075
 50
180.0
 51
270.0
  0
ARC
  5
194
  8
0
  6
CONTINUOUS
 10
-24.305389000000002
 20
15.666363
 30
0.0
 40
1.0749999999999991
 50
90.0
 51
180.0
  0
ARC
  5
195
  8
0
  6
CONTINUOUS
 10
-16.180389000000002
 20
12.853863
 30
0.0
 40
0.75
 50
157.807999
 51
202.192001
  0
ARC
  5
196
  8
0
  6
CONTINUOUS
 10
-8.0554659999999991
 20
15.666363
 30
0.0
 40
1.0749999999999991
 50
0.0
 51
90.0
  0
ARC
  5
197
  8
0
  6
CONTINUOUS
 10
-16.180389000000002
 20
12.853863
 30
0.0
 40
0.75
 50
337.80801400000001
 51
22.191600999999999
  0
ARC
  5
198
  8
0
  6
CONTINUOUS
 10
-16.742889000000002
 20
12.853863
 30
0.0
 40
0.5625
 50
103.34200300000001
 51
256.65798999999998
  0
ARC
  5
199
  8
0
  6
CONTINUOUS
 10
-16.742889000000002
 20
12.853863
 30
0.0
 40
0.3125
 50
114.974998
 51
245.02499399999991
  0
ARC
  5
19A
  8
0
  6
CONTINUOUS
 10
-15.617889
 20
12.853863
 30
0.0
 40
0.5625
 50
283.34201000000002
 51
76.657600000000002
  0
ARC
  5
19B
  8
0
  6
CONTINUOUS
 10
-15.617889
 20
12.853863
 30
0.0
 40
0.3125
 50
294.97500600000001
 51
65.025002000000001
  0
ARC
  5
19C
  8
0
  6
CONTINUOUS
 10
-15.617889
 20
-8.0211369999999995
 30
0.0
 40
0.5625
 50
283.34201000000002
 51
76.657600000000002
  0
ARC
  5
19D
  8
0
  6
CONTINUOUS
 10
-15.617889
 20
-8.0211369999999995
 30
0.0
 40
0.3125
 50
294.97500600000001
 51
65.025002000000001
  0
ARC
  5
19E
  8
0
  6
CONTINUOUS
 10
-16.742889000000002
 20
-8.0211369999999995
 30
0.0
 40
0.5625
 50
103.34200300000001
 51
256.65798999999998
  0
ARC
  5
19F
  8
0
  6
CONTINUOUS
 10
-16.742889000000002
 20
-8.0211369999999995
 30
0.0
 40
0.3125
 50
114.974998
 51
245.02499399999991
  0
ARC
  5
1A0
  8
0
  6
CONTINUOUS
 10
-25.455390999999999
 20
-11.758637999999999
 30
0.0
 40
0.075
 50
270.0
 51
0.0
  0
CIRCLE
  5
1A1
  8
0
  6
CONTINUOUS
 10
-16.180389000000002
 20
-8.0211369999999995
 30
0.0
 40
0.4649520000000001
  0
CIRCLE
  5
1A2
  8
0
  6
CONTINUOUS
 10
-16.180389000000002
 20
-8.0211369999999995
 30
0.0
 40
0.4
  0
CIRCLE
  5
1A3
  8
0
  6
CONTINUOUS
 10
-16.180389000000002
 20
12.853863
 30
0.0
 40
0.4649520000000001
  0
CIRCLE
  5
1A4
  8
0
  6
CONTINUOUS
 10
-16.180389000000002
 20
12.853863
 30
0.0
 40
0.4
  0
LINE
  5
1A5
  8
0
  6
CONTINUOUS
 10
12.991535000000001
 20
-12.998113999999999
 30
0.0
 11
12.991535000000001
 21
17.830611999999999
 31
0.0
  0
LINE
  5
1A6
  8
0
  6
CONTINUOUS
 10
26.741530999999998
 20
15.94136
 30
0.0
 11
26.741530999999998
 21
15.99136
 31
0.0
  0
LINE
  5
1A7
  8
0
  6
CONTINUOUS
 10
26.741530999999998
 20
-11.15864
 30
0.0
 11
26.741530999999998
 21
-11.108639
 31
0.0
  0
LINE
  5
1A8
  8
0
  6
CONTINUOUS
 10
12.991535000000001
 20
-13.333714000000001
 30
0.0
 11
12.991535000000001
 21
-13.145213999999999
 31
0.0
  0
LINE
  5
1A9
  8
0
  6
CONTINUOUS
 10
14.169036999999999
 20
-13.373863
 30
0.0
 11
12.991535000000001
 21
-13.333714000000001
 31
0.0
  0
LINE
  5
1AA
  8
0
  6
CONTINUOUS
 10
14.218285
 20
-13.375540000000001
 30
0.0
 11
14.169036999999999
 21
-13.373863
 31
0.0
  0
LINE
  5
1AB
  8
0
  6
CONTINUOUS
 10
14.241535000000001
 20
-13.376339
 30
0.0
 11
14.218285
 21
-13.375540000000001
 31
0.0
  0
LINE
  5
1AC
  8
0
  6
CONTINUOUS
 10
26.741530999999998
 20
-11.65864
 30
0.0
 11
26.741530999999998
 21
-11.15864
 31
0.0
  0
LINE
  5
1AD
  8
0
  6
CONTINUOUS
 10
26.741530999999998
 20
-11.65864
 30
0.0
 11
26.491530999999998
 21
-11.663389
 31
0.0
  0
LINE
  5
1AE
  8
0
  6
CONTINUOUS
 10
26.741530999999998
 20
15.94136
 30
0.0
 11
26.741530999999998
 21
15.99136
 31
0.0
  0
LINE
  5
1AF
  8
0
  6
CONTINUOUS
 10
26.741530999999998
 20
-11.15864
 30
0.0
 11
26.741530999999998
 21
-11.108639
 31
0.0
  0
LINE
  5
1B0
  8
0
  6
CONTINUOUS
 10
26.741530999999998
 20
15.94136
 30
0.0
 11
26.741530999999998
 21
15.99136
 31
0.0
  0
LINE
  5
1B1
  8
0
  6
CONTINUOUS
 10
26.741530999999998
 20
-11.65864
 30
0.0
 11
23.991534999999999
 21
-11.708639
 31
0.0
  0
LINE
  5
1B2
  8
0
  6
CONTINUOUS
 10
26.741530999999998
 20
-11.40889
 30
0.0
 11
26.741530999999998
 21
-11.65864
 31
0.0
  0
LINE
  5
1B3
  8
0
  6
CONTINUOUS
 10
26.741530999999998
 20
-11.40889
 30
0.0
 11
26.741530999999998
 21
16.24136
 31
0.0
  0
LINE
  5
1B4
  8
0
  6
CONTINUOUS
 10
26.741530999999998
 20
16.49136
 30
0.0
 11
26.741530999999998
 21
16.24136
 31
0.0
  0
LINE
  5
1B5
  8
0
  6
CONTINUOUS
 10
23.991534999999999
 20
16.541363
 30
0.0
 11
26.741530999999998
 21
16.49136
 31
0.0
  0
LINE
  5
1B6
  8
0
  6
CONTINUOUS
 10
23.991534999999999
 20
18.291363
 30
0.0
 11
23.991534999999999
 21
-13.458864
 31
0.0
  0
LINE
  5
1B7
  8
0
  6
CONTINUOUS
 10
12.991535000000001
 20
-13.083864
 30
0.0
 11
12.991535000000001
 21
18.166363
 31
0.0
  0
LINE
  5
1B8
  8
0
  6
CONTINUOUS
 10
23.991534999999999
 20
18.541363
 30
0.0
 11
23.991534999999999
 21
18.291363
 31
0.0
  0
LINE
  5
1B9
  8
0
  6
CONTINUOUS
 10
12.991535000000001
 20
18.166363
 30
0.0
 11
23.991534999999999
 21
18.541363
 31
0.0
  0
LINE
  5
1BA
  8
0
  6
CONTINUOUS
 10
23.991534999999999
 20
-13.458864
 30
0.0
 11
23.991534999999999
 21
-13.708714000000001
 31
0.0
  0
LINE
  5
1BB
  8
0
  6
CONTINUOUS
 10
12.991535000000001
 20
-13.333714000000001
 30
0.0
 11
12.991535000000001
 21
-13.083864
 31
0.0
  0
LINE
  5
1BC
  8
0
  6
CONTINUOUS
 10
23.991534999999999
 20
-13.708714000000001
 30
0.0
 11
12.991535000000001
 21
-13.333714000000001
 31
0.0
  0
LINE
  5
1BD
  8
0
  6
CONTINUOUS
 10
26.991530999999998
 20
-10.833639
 30
0.0
 11
26.991530999999998
 21
-10.583639
 31
0.0
  0
LINE
  5
1BE
  8
0
  6
CONTINUOUS
 10
26.741530999999998
 20
-10.833639
 30
0.0
 11
26.991530999999998
 21
-10.833639
 31
0.0
  0
LINE
  5
1BF
  8
0
  6
CONTINUOUS
 10
26.991530999999998
 20
-10.583639
 30
0.0
 11
26.991530999999998
 21
15.416363
 31
0.0
  0
LINE
  5
1C0
  8
0
  6
CONTINUOUS
 10
26.991530999999998
 20
15.666363
 30
0.0
 11
26.991530999999998
 21
15.416363
 31
0.0
  0
LINE
  5
1C1
  8
0
  6
CONTINUOUS
 10
26.741530999999998
 20
15.666363
 30
0.0
 11
26.991530999999998
 21
15.666363
 31
0.0
  0
LINE
  5
1C2
  8
0
  6
CONTINUOUS
 10
26.991530999999998
 20
-10.833639
 30
0.0
 11
26.741530999999998
 21
-10.833639
 31
0.0
  0
LINE
  5
1C3
  8
0
  6
CONTINUOUS
 10
26.991530999999998
 20
-10.583639
 30
0.0
 11
26.991530999999998
 21
-10.833639
 31
0.0
  0
LINE
  5
1C4
  8
0
  6
CONTINUOUS
 10
-7.5952149999999987
 20
13.101611999999999
 30
0.0
 11
-8.1179659999999991
 21
13.101611999999999
 31
0.0
  0
LINE
  5
1C5
  8
0
  6
CONTINUOUS
 10
-7.4704670000000002
 20
15.501609999999999
 30
0.0
 11
-7.4704670000000002
 21
13.226611999999999
 31
0.0
  0
LINE
  5
1C6
  8
0
  6
CONTINUOUS
 10
-15.745041000000001
 20
16.001362
 30
0.0
 11
-7.9699669999999987
 21
16.001362
 31
0.0
  0
LINE
  5
1C7
  8
0
  6
CONTINUOUS
 10
-15.870013999999999
 20
15.353863
 30
0.0
 11
-15.870013999999999
 21
15.876362
 31
0.0
  0
LINE
  5
1C8
  8
0
  6
CONTINUOUS
 10
-16.490739999999999
 20
15.876362
 30
0.0
 11
-16.490739999999999
 21
15.353863
 31
0.0
  0
LINE
  5
1C9
  8
0
  6
CONTINUOUS
 10
-24.390689999999999
 20
16.001362
 30
0.0
 11
-16.615715000000002
 21
16.001362
 31
0.0
  0
LINE
  5
1CA
  8
0
  6
CONTINUOUS
 10
-24.89039
 20
13.226611999999999
 30
0.0
 11
-24.89039
 21
15.501609999999999
 31
0.0
  0
LINE
  5
1CB
  8
0
  6
CONTINUOUS
 10
-24.242889000000002
 20
13.101611999999999
 30
0.0
 11
-24.765464999999999
 21
13.101611999999999
 31
0.0
  0
LINE
  5
1CC
  8
0
  6
CONTINUOUS
 10
-24.765464999999999
 20
12.480862
 30
0.0
 11
-24.242889000000002
 21
12.480862
 31
0.0
  0
LINE
  5
1CD
  8
0
  6
CONTINUOUS
 10
-24.884239000000001
 20
-4.7108879999999989
 30
0.0
 11
-24.884239000000001
 21
10.543609999999999
 31
0.0
  0
LINE
  5
1CE
  8
0
  6
CONTINUOUS
 10
-24.242889000000002
 20
-7.0233879999999997
 30
0.0
 11
-24.765464999999999
 21
-7.0233879999999997
 31
0.0
  0
LINE
  5
1CF
  8
0
  6
CONTINUOUS
 10
-24.765464999999999
 20
-4.7028879999999988
 30
0.0
 11
-24.342140000000001
 21
-4.7028879999999988
 31
0.0
  0
LINE
  5
1D0
  8
0
  6
CONTINUOUS
 10
-8.0187150000000003
 20
-4.7028879999999988
 30
0.0
 11
-7.5952149999999987
 21
-4.7028879999999988
 31
0.0
  0
LINE
  5
1D1
  8
0
  6
CONTINUOUS
 10
-8.1179659999999991
 20
12.480862
 30
0.0
 11
-7.5952149999999987
 21
12.480862
 31
0.0
  0
LINE
  5
1D2
  8
0
  6
CONTINUOUS
 10
-7.4764629999999999
 20
10.543609999999999
 30
0.0
 11
-7.4764629999999999
 21
-4.7108879999999989
 31
0.0
  0
LINE
  5
1D3
  8
0
  6
CONTINUOUS
 10
-7.5952149999999987
 20
-7.0233879999999997
 30
0.0
 11
-8.1179659999999991
 21
-7.0233879999999997
 31
0.0
  0
LINE
  5
1D4
  8
0
  6
CONTINUOUS
 10
-8.1179659999999991
 20
-7.6441379999999999
 30
0.0
 11
-7.5952149999999987
 21
-7.6441379999999999
 31
0.0
  0
LINE
  5
1D5
  8
0
  6
CONTINUOUS
 10
-7.4704670000000002
 20
-7.7691379999999999
 30
0.0
 11
-7.4704670000000002
 21
-10.67639
 31
0.0
  0
LINE
  5
1D6
  8
0
  6
CONTINUOUS
 10
-7.9622149999999987
 20
-11.17614
 30
0.0
 11
-12.305216
 21
-11.243639
 31
0.0
  0
LINE
  5
1D7
  8
0
  6
CONTINUOUS
 10
-13.305716
 20
-11.243639
 30
0.0
 11
-15.74869
 21
-11.172138
 31
0.0
  0
LINE
  5
1D8
  8
0
  6
CONTINUOUS
 10
-15.870013999999999
 20
-11.047388
 30
0.0
 11
-15.870013999999999
 21
-10.571137999999999
 31
0.0
  0
LINE
  5
1D9
  8
0
  6
CONTINUOUS
 10
-16.490739999999999
 20
-10.571137999999999
 30
0.0
 11
-16.490739999999999
 21
-11.047388
 31
0.0
  0
LINE
  5
1DA
  8
0
  6
CONTINUOUS
 10
-16.612064
 20
-11.172138
 30
0.0
 11
-19.055040000000002
 21
-11.243639
 31
0.0
  0
LINE
  5
1DB
  8
0
  6
CONTINUOUS
 10
-24.765464999999999
 20
-7.6441379999999999
 30
0.0
 11
-24.242889000000002
 21
-7.6441379999999999
 31
0.0
  0
LINE
  5
1DC
  8
0
  6
CONTINUOUS
 10
-24.89039
 20
-10.67639
 30
0.0
 11
-24.89039
 21
-7.7691379999999999
 31
0.0
  0
LINE
  5
1DD
  8
0
  6
CONTINUOUS
 10
-20.055565000000001
 20
-11.243639
 30
0.0
 11
-24.398491
 21
-11.17614
 31
0.0
  0
LINE
  5
1DE
  8
0
  6
CONTINUOUS
 10
-17.130389999999998
 20
-12.845888
 30
0.0
 11
-26.243888999999999
 21
-12.845888
 31
0.0
  0
LINE
  5
1DF
  8
0
  6
CONTINUOUS
 10
-26.317440000000001
 20
-12.772138999999999
 30
0.0
 11
-26.317440000000001
 21
17.604862000000001
 31
0.0
  0
LINE
  5
1E0
  8
0
  6
CONTINUOUS
 10
-26.243888999999999
 20
17.678360000000001
 30
0.0
 11
-6.1169659999999997
 21
17.678360000000001
 31
0.0
  0
LINE
  5
1E1
  8
0
  6
CONTINUOUS
 10
-6.0432169999999994
 20
17.604862000000001
 30
0.0
 11
-6.0432169999999994
 21
-12.772138999999999
 31
0.0
  0
LINE
  5
1E2
  8
0
  6
CONTINUOUS
 10
-6.1169659999999997
 20
-12.845888
 30
0.0
 11
-15.230390999999999
 21
-12.845888
 31
0.0
  0
LINE
  5
1E3
  8
0
  6
CONTINUOUS
 10
-10.706039000000001
 20
-3.5893899999999999
 30
0.0
 11
-10.93014
 21
-3.5893899999999999
 31
0.0
  0
LINE
  5
1E4
  8
0
  6
CONTINUOUS
 10
-10.93014
 20
-3.3808899999999991
 30
0.0
 11
-10.93014
 21
-3.5413890000000001
 31
0.0
  0
LINE
  5
1E5
  8
0
  6
CONTINUOUS
 10
-10.93014
 20
-3.5893899999999999
 30
0.0
 11
-10.93014
 21
-3.780387999999999
 31
0.0
  0
LINE
  5
1E6
  8
0
  6
CONTINUOUS
 10
-10.706039000000001
 20
-3.5413890000000001
 30
0.0
 11
-10.706039000000001
 21
-3.5893899999999999
 31
0.0
  0
LINE
  5
1E7
  8
0
  6
CONTINUOUS
 10
-10.669790000000001
 20
-3.828387999999999
 30
0.0
 11
-11.008115999999999
 21
-3.828387999999999
 31
0.0
  0
LINE
  5
1E8
  8
0
  6
CONTINUOUS
 10
-10.686266
 20
-3.3328899999999999
 30
0.0
 11
-10.686266
 21
-3.3808899999999991
 31
0.0
  0
LINE
  5
1E9
  8
0
  6
CONTINUOUS
 10
-11.008115999999999
 20
-3.3328899999999999
 30
0.0
 11
-10.686266
 21
-3.3328899999999999
 31
0.0
  0
LINE
  5
1EA
  8
0
  6
CONTINUOUS
 10
-11.008115999999999
 20
-3.828387999999999
 30
0.0
 11
-11.008115999999999
 21
-3.3328899999999999
 31
0.0
  0
LINE
  5
1EB
  8
0
  6
CONTINUOUS
 10
-10.93014
 20
-3.780387999999999
 30
0.0
 11
-10.669790000000001
 21
-3.780387999999999
 31
0.0
  0
LINE
  5
1EC
  8
0
  6
CONTINUOUS
 10
-10.669790000000001
 20
-3.780387999999999
 30
0.0
 11
-10.669790000000001
 21
-3.828387999999999
 31
0.0
  0
LINE
  5
1ED
  8
0
  6
CONTINUOUS
 10
-10.686266
 20
-3.3808899999999991
 30
0.0
 11
-10.93014
 21
-3.3808899999999991
 31
0.0
  0
LINE
  5
1EE
  8
0
  6
CONTINUOUS
 10
-10.93014
 20
-3.5413890000000001
 30
0.0
 11
-10.706039000000001
 21
-3.5413890000000001
 31
0.0
  0
LINE
  5
1EF
  8
0
  6
CONTINUOUS
 10
-10.930389
 20
7.9163629999999996
 30
0.0
 11
-10.430389
 21
7.9163629999999996
 31
0.0
  0
LINE
  5
1F0
  8
0
  6
CONTINUOUS
 10
-10.180389
 20
8.4163630000000005
 30
0.0
 11
-10.680389
 21
9.4163630000000005
 31
0.0
  0
LINE
  5
1F1
  8
0
  6
CONTINUOUS
 10
-10.680389
 20
9.4163630000000005
 30
0.0
 11
-11.180389
 21
8.4163630000000005
 31
0.0
  0
LINE
  5
1F2
  8
0
  6
CONTINUOUS
 10
-11.180389
 20
8.4163630000000005
 30
0.0
 11
-10.930389
 21
8.4163630000000005
 31
0.0
  0
LINE
  5
1F3
  8
0
  6
CONTINUOUS
 10
-10.930389
 20
8.4163630000000005
 30
0.0
 11
-10.930389
 21
7.9163629999999996
 31
0.0
  0
LINE
  5
1F4
  8
0
  6
CONTINUOUS
 10
-10.430389
 20
7.9163629999999996
 30
0.0
 11
-10.430389
 21
8.4163630000000005
 31
0.0
  0
LINE
  5
1F5
  8
0
  6
CONTINUOUS
 10
-10.430389
 20
8.4163630000000005
 30
0.0
 11
-10.180389
 21
8.4163630000000005
 31
0.0
  0
LINE
  5
1F6
  8
0
  6
CONTINUOUS
 10
-16.492889000000002
 20
9.7913630000000005
 30
0.0
 11
-16.180389000000002
 21
9.1663630000000005
 31
0.0
  0
LINE
  5
1F7
  8
0
  6
CONTINUOUS
 10
-15.867889
 20
9.7913630000000005
 30
0.0
 11
-16.492889000000002
 21
9.7913630000000005
 31
0.0
  0
LINE
  5
1F8
  8
0
  6
CONTINUOUS
 10
-16.180389000000002
 20
9.1663630000000005
 30
0.0
 11
-15.867889
 21
9.7913630000000005
 31
0.0
  0
LINE
  5
1F9
  8
0
  6
CONTINUOUS
 10
-9.6803889999999981
 20
2.666363
 30
0.0
 11
-9.0554659999999991
 21
2.353863
 31
0.0
  0
LINE
  5
1FA
  8
0
  6
CONTINUOUS
 10
-9.0554659999999991
 20
2.353863
 30
0.0
 11
-9.0554659999999991
 21
2.978863
 31
0.0
  0
LINE
  5
1FB
  8
0
  6
CONTINUOUS
 10
-9.0554659999999991
 20
2.978863
 30
0.0
 11
-9.6803889999999981
 21
2.666363
 31
0.0
  0
LINE
  5
1FC
  8
0
  6
CONTINUOUS
 10
-16.492889000000002
 20
-4.4586370000000004
 30
0.0
 11
-15.867889
 21
-4.4586370000000004
 31
0.0
  0
LINE
  5
1FD
  8
0
  6
CONTINUOUS
 10
-15.867889
 20
-4.4586370000000004
 30
0.0
 11
-16.180389000000002
 21
-3.833637
 31
0.0
  0
LINE
  5
1FE
  8
0
  6
CONTINUOUS
 10
-16.180389000000002
 20
-3.833637
 30
0.0
 11
-16.492889000000002
 21
-4.4586370000000004
 31
0.0
  0
LINE
  5
1FF
  8
0
  6
CONTINUOUS
 10
-23.305389000000002
 20
2.353863
 30
0.0
 11
-22.680389000000002
 21
2.666363
 31
0.0
  0
LINE
  5
200
  8
0
  6
CONTINUOUS
 10
-22.680389000000002
 20
2.666363
 30
0.0
 11
-23.305389000000002
 21
2.978863
 31
0.0
  0
LINE
  5
201
  8
0
  6
CONTINUOUS
 10
-23.305389000000002
 20
2.978863
 30
0.0
 11
-23.305389000000002
 21
2.353863
 31
0.0
  0
LINE
  5
202
  8
0
  6
CONTINUOUS
 10
-8.6804659999999991
 20
-2.862388999999999
 30
0.0
 11
-8.5459649999999971
 21
-3.2318880000000001
 31
0.0
  0
LINE
  5
203
  8
0
  6
CONTINUOUS
 10
-8.7327159999999981
 20
-3.0836369999999991
 30
0.0
 11
-8.8054659999999991
 21
-2.8843879999999991
 31
0.0
  0
LINE
  5
204
  8
0
  6
CONTINUOUS
 10
-8.8779660000000007
 20
-3.0836369999999991
 30
0.0
 11
-8.7327159999999981
 21
-3.0836369999999991
 31
0.0
  0
LINE
  5
205
  8
0
  6
CONTINUOUS
 10
-8.8054659999999991
 20
-2.8843879999999991
 30
0.0
 11
-8.8779660000000007
 21
-3.0836369999999991
 31
0.0
  0
LINE
  5
206
  8
0
  6
CONTINUOUS
 10
-9.3362660000000002
 20
-3.0836369999999991
 30
0.0
 11
-9.0649639999999998
 21
-3.2318880000000001
 31
0.0
  0
LINE
  5
207
  8
0
  6
CONTINUOUS
 10
-8.9304659999999991
 20
-2.862388999999999
 30
0.0
 11
-9.3362660000000002
 21
-3.0836369999999991
 31
0.0
  0
LINE
  5
208
  8
0
  6
CONTINUOUS
 10
-9.0649639999999998
 20
-3.2318880000000001
 30
0.0
 11
-8.9304659999999991
 21
-2.862388999999999
 31
0.0
  0
LINE
  5
209
  8
0
  6
CONTINUOUS
 10
-9.4928889999999981
 20
-3.0836369999999991
 30
0.0
 11
-8.8054659999999991
 21
-3.458637
 31
0.0
  0
LINE
  5
20A
  8
0
  6
CONTINUOUS
 10
-8.8054659999999991
 20
-3.458637
 30
0.0
 11
-8.1179659999999991
 21
-3.0836369999999991
 31
0.0
  0
LINE
  5
20B
  8
0
  6
CONTINUOUS
 10
-8.1179659999999991
 20
-3.0836369999999991
 30
0.0
 11
-8.8054659999999991
 21
-2.7086369999999991
 31
0.0
  0
LINE
  5
20C
  8
0
  6
CONTINUOUS
 10
-8.8054659999999991
 20
-2.7086369999999991
 30
0.0
 11
-9.4928889999999981
 21
-3.0836369999999991
 31
0.0
  0
LINE
  5
20D
  8
0
  6
CONTINUOUS
 10
-8.2744660000000003
 20
-3.0836369999999991
 30
0.0
 11
-8.6804659999999991
 21
-2.862388999999999
 31
0.0
  0
LINE
  5
20E
  8
0
  6
CONTINUOUS
 10
-8.5459649999999971
 20
-3.2318880000000001
 30
0.0
 11
-8.2744660000000003
 21
-3.0836369999999991
 31
0.0
  0
LINE
  5
20F
  8
0
  6
CONTINUOUS
 10
-8.9234660000000012
 20
-3.2086369999999991
 30
0.0
 11
-8.9539639999999991
 21
-3.292389
 31
0.0
  0
LINE
  5
210
  8
0
  6
CONTINUOUS
 10
-8.6872160000000012
 20
-3.2086369999999991
 30
0.0
 11
-8.9234660000000012
 21
-3.2086369999999991
 31
0.0
  0
LINE
  5
211
  8
0
  6
CONTINUOUS
 10
-8.6569649999999996
 20
-3.292389
 30
0.0
 11
-8.6872160000000012
 21
-3.2086369999999991
 31
0.0
  0
LINE
  5
212
  8
0
  6
CONTINUOUS
 10
-8.8054659999999991
 20
-3.3733900000000001
 30
0.0
 11
-8.6569649999999996
 21
-3.292389
 31
0.0
  0
LINE
  5
213
  8
0
  6
CONTINUOUS
 10
-8.9539639999999991
 20
-3.292389
 30
0.0
 11
-8.8054659999999991
 21
-3.3733900000000001
 31
0.0
  0
LINE
  5
214
  8
0
  6
CONTINUOUS
 10
-22.805389000000002
 20
8.4163630000000005
 30
0.0
 11
-23.305389000000002
 21
9.4163630000000005
 31
0.0
  0
LINE
  5
215
  8
0
  6
CONTINUOUS
 10
-23.305389000000002
 20
9.4163630000000005
 30
0.0
 11
-23.805389000000002
 21
8.4163630000000005
 31
0.0
  0
LINE
  5
216
  8
0
  6
CONTINUOUS
 10
-23.805389000000002
 20
8.4163630000000005
 30
0.0
 11
-23.555389000000002
 21
8.4163630000000005
 31
0.0
  0
LINE
  5
217
  8
0
  6
CONTINUOUS
 10
-23.555389000000002
 20
8.4163630000000005
 30
0.0
 11
-23.555389000000002
 21
7.9163629999999996
 31
0.0
  0
LINE
  5
218
  8
0
  6
CONTINUOUS
 10
-23.555389000000002
 20
7.9163629999999996
 30
0.0
 11
-23.055389000000002
 21
7.9163629999999996
 31
0.0
  0
LINE
  5
219
  8
0
  6
CONTINUOUS
 10
-23.055389000000002
 20
7.9163629999999996
 30
0.0
 11
-23.055389000000002
 21
8.4163630000000005
 31
0.0
  0
LINE
  5
21A
  8
0
  6
CONTINUOUS
 10
-23.055389000000002
 20
8.4163630000000005
 30
0.0
 11
-22.805389000000002
 21
8.4163630000000005
 31
0.0
  0
LINE
  5
21B
  8
0
  6
CONTINUOUS
 10
-10.353213999999999
 20
-2.5793879999999998
 30
0.0
 11
-10.43984
 21
-2.5793879999999998
 31
0.0
  0
LINE
  5
21C
  8
0
  6
CONTINUOUS
 10
-10.650764000000001
 20
-2.8333889999999999
 30
0.0
 11
-10.650764000000001
 21
-2.8621409999999989
 31
0.0
  0
LINE
  5
21D
  8
0
  6
CONTINUOUS
 10
-10.737391000000001
 20
-2.8333889999999999
 30
0.0
 11
-10.650764000000001
 21
-2.8333889999999999
 31
0.0
  0
LINE
  5
21E
  8
0
  6
CONTINUOUS
 10
-10.737391000000001
 20
-2.8653909999999989
 30
0.0
 11
-10.737391000000001
 21
-2.8333889999999999
 31
0.0
  0
LINE
  5
21F
  8
0
  6
CONTINUOUS
 10
-11.255115999999999
 20
-2.4076390000000001
 30
0.0
 11
-11.056789
 21
-2.4076390000000001
 31
0.0
  0
LINE
  5
220
  8
0
  6
CONTINUOUS
 10
-11.255115999999999
 20
-3.027137999999999
 30
0.0
 11
-11.255115999999999
 21
-2.4076390000000001
 31
0.0
  0
LINE
  5
221
  8
0
  6
CONTINUOUS
 10
-11.166016000000001
 20
-3.027137999999999
 30
0.0
 11
-11.255115999999999
 21
-3.027137999999999
 31
0.0
  0
LINE
  5
222
  8
0
  6
CONTINUOUS
 10
-11.166016000000001
 20
-2.7633899999999998
 30
0.0
 11
-11.166016000000001
 21
-3.027137999999999
 31
0.0
  0
LINE
  5
223
  8
0
  6
CONTINUOUS
 10
-11.056789
 20
-2.7633899999999998
 30
0.0
 11
-11.166016000000001
 21
-2.7633899999999998
 31
0.0
  0
LINE
  5
224
  8
0
  6
CONTINUOUS
 10
-11.166016000000001
 20
-2.4678879999999999
 30
0.0
 11
-11.166016000000001
 21
-2.7031399999999999
 31
0.0
  0
LINE
  5
225
  8
0
  6
CONTINUOUS
 10
-11.07939
 20
-2.4678879999999999
 30
0.0
 11
-11.166016000000001
 21
-2.4678879999999999
 31
0.0
  0
LINE
  5
226
  8
0
  6
CONTINUOUS
 10
-11.166016000000001
 20
-2.7031399999999999
 30
0.0
 11
-11.07939
 21
-2.7031399999999999
 31
0.0
  0
LINE
  5
227
  8
0
  6
CONTINUOUS
 10
-24.242889000000002
 20
10.59761
 30
0.0
 11
-24.242889000000002
 21
10.594860000000001
 31
0.0
  0
LINE
  5
228
  8
0
  6
CONTINUOUS
 10
-24.242889000000002
 20
10.583111000000001
 30
0.0
 11
-24.242889000000002
 21
10.59761
 31
0.0
  0
LINE
  5
229
  8
0
  6
CONTINUOUS
 10
-24.242889000000002
 20
10.561358999999999
 30
0.0
 11
-24.242889000000002
 21
10.583111000000001
 31
0.0
  0
LINE
  5
22A
  8
0
  6
CONTINUOUS
 10
-24.242889000000002
 20
10.544361
 30
0.0
 11
-24.242889000000002
 21
10.561358999999999
 31
0.0
  0
LINE
  5
22B
  8
0
  6
CONTINUOUS
 10
-8.1179659999999991
 20
10.59761
 30
0.0
 11
-8.1179659999999991
 21
10.594860000000001
 31
0.0
  0
LINE
  5
22C
  8
0
  6
CONTINUOUS
 10
-8.1179659999999991
 20
10.583111000000001
 30
0.0
 11
-8.1179659999999991
 21
10.59761
 31
0.0
  0
LINE
  5
22D
  8
0
  6
CONTINUOUS
 10
-8.1179659999999991
 20
10.561358999999999
 30
0.0
 11
-8.1179659999999991
 21
10.583111000000001
 31
0.0
  0
LINE
  5
22E
  8
0
  6
CONTINUOUS
 10
-8.1179659999999991
 20
10.544361
 30
0.0
 11
-8.1179659999999991
 21
10.561358999999999
 31
0.0
  0
LINE
  5
22F
  8
0
  6
CONTINUOUS
 10
-24.144439999999999
 20
-4.7086370000000004
 30
0.0
 11
-23.992889000000002
 21
-4.7086370000000004
 31
0.0
  0
LINE
  5
230
  8
0
  6
CONTINUOUS
 10
-8.216215
 20
-4.7086370000000004
 30
0.0
 11
-8.3679659999999991
 21
-4.7086370000000004
 31
0.0
  0
LINE
  5
231
  8
0
  6
CONTINUOUS
 10
-24.242889000000002
 20
-7.0298879999999997
 30
0.0
 11
-24.242889000000002
 21
-4.9586370000000004
 31
0.0
  0
LINE
  5
232
  8
0
  6
CONTINUOUS
 10
-10.06789
 20
-7.9586369999999986
 30
0.0
 11
-10.06789
 21
-6.7086369999999986
 31
0.0
  0
LINE
  5
233
  8
0
  6
CONTINUOUS
 10
-11.31789
 20
-6.7086369999999986
 30
0.0
 11
-11.31789
 21
-7.9586369999999986
 31
0.0
  0
LINE
  5
234
  8
0
  6
CONTINUOUS
 10
-11.94289
 20
12.166363
 30
0.0
 11
-10.69289
 21
12.166363
 31
0.0
  0
LINE
  5
235
  8
0
  6
CONTINUOUS
 10
-20.417891000000001
 20
13.416363
 30
0.0
 11
-21.667891000000001
 21
13.416363
 31
0.0
  0
LINE
  5
236
  8
0
  6
CONTINUOUS
 10
-24.242889000000002
 20
-10.19614
 30
0.0
 11
-24.242889000000002
 21
-7.637389999999999
 31
0.0
  0
LINE
  5
237
  8
0
  6
CONTINUOUS
 10
-8.3679659999999991
 20
-10.44614
 30
0.0
 11
-15.751590999999999
 21
-10.44614
 31
0.0
  0
LINE
  5
238
  8
0
  6
CONTINUOUS
 10
-8.1179659999999991
 20
14.978863
 30
0.0
 11
-8.1179659999999991
 21
13.095112
 31
0.0
  0
LINE
  5
239
  8
0
  6
CONTINUOUS
 10
-21.042891000000001
 20
-7.9586369999999986
 30
0.0
 11
-21.042891000000001
 21
-6.7086369999999986
 31
0.0
  0
LINE
  5
23A
  8
0
  6
CONTINUOUS
 10
-23.992889000000002
 20
15.228863
 30
0.0
 11
-16.609165000000001
 21
15.228863
 31
0.0
  0
LINE
  5
23B
  8
0
  6
CONTINUOUS
 10
-23.992889000000002
 20
-4.7086370000000004
 30
0.0
 11
-8.3679659999999991
 21
-4.7086370000000004
 31
0.0
  0
LINE
  5
23C
  8
0
  6
CONTINUOUS
 10
-8.1179659999999991
 20
-7.637389999999999
 30
0.0
 11
-8.1179659999999991
 21
-10.19614
 31
0.0
  0
LINE
  5
23D
  8
0
  6
CONTINUOUS
 10
-22.292891000000001
 20
-6.7086369999999986
 30
0.0
 11
-22.292891000000001
 21
-7.9586369999999986
 31
0.0
  0
LINE
  5
23E
  8
0
  6
CONTINUOUS
 10
-21.667891000000001
 20
12.166363
 30
0.0
 11
-20.417891000000001
 21
12.166363
 31
0.0
  0
LINE
  5
23F
  8
0
  6
CONTINUOUS
 10
-8.1179659999999991
 20
-4.9586370000000004
 30
0.0
 11
-8.1179659999999991
 21
-7.0298879999999997
 31
0.0
  0
LINE
  5
240
  8
0
  6
CONTINUOUS
 10
-16.609165000000001
 20
-10.44614
 30
0.0
 11
-23.992889000000002
 21
-10.44614
 31
0.0
  0
LINE
  5
241
  8
0
  6
CONTINUOUS
 10
-15.751590999999999
 20
15.228863
 30
0.0
 11
-8.3679659999999991
 21
15.228863
 31
0.0
  0
LINE
  5
242
  8
0
  6
CONTINUOUS
 10
-10.69289
 20
13.416363
 30
0.0
 11
-11.94289
 21
13.416363
 31
0.0
  0
LINE
  5
243
  8
0
  6
CONTINUOUS
 10
-24.242889000000002
 20
13.095112
 30
0.0
 11
-24.242889000000002
 21
14.978863
 31
0.0
  0
LINE
  5
244
  8
0
  6
CONTINUOUS
 10
-20.592890000000001
 20
-7.9586369999999986
 30
0.0
 11
-20.592890000000001
 21
-6.7086369999999986
 31
0.0
  0
LINE
  5
245
  8
0
  6
CONTINUOUS
 10
-22.742889000000002
 20
-6.7086369999999986
 30
0.0
 11
-22.742889000000002
 21
-7.9586369999999986
 31
0.0
  0
LINE
  5
246
  8
0
  6
CONTINUOUS
 10
-9.6178889999999981
 20
-7.9586369999999986
 30
0.0
 11
-9.6178889999999981
 21
-6.7086369999999986
 31
0.0
  0
LINE
  5
247
  8
0
  6
CONTINUOUS
 10
-11.767891000000001
 20
-6.7086369999999986
 30
0.0
 11
-11.767891000000001
 21
-7.9586369999999986
 31
0.0
  0
LINE
  5
248
  8
0
  6
CONTINUOUS
 10
-23.180389000000002
 20
10.541363
 30
0.0
 11
-23.180389000000002
 21
10.841362
 31
0.0
  0
LINE
  5
249
  8
0
  6
CONTINUOUS
 10
-18.905390000000001
 20
10.666363
 30
0.0
 11
-18.905390000000001
 21
10.841362
 31
0.0
  0
LINE
  5
24A
  8
0
  6
CONTINUOUS
 10
-9.1804659999999991
 20
10.841362
 30
0.0
 11
-9.1804659999999991
 21
10.541363
 31
0.0
  0
LINE
  5
24B
  8
0
  6
CONTINUOUS
 10
-13.455391000000001
 20
10.841362
 30
0.0
 11
-13.455391000000001
 21
10.666363
 31
0.0
  0
LINE
  5
24C
  8
0
  6
CONTINUOUS
 10
-23.180389000000002
 20
10.841362
 30
0.0
 11
-18.905390000000001
 21
10.841362
 31
0.0
  0
LINE
  5
24D
  8
0
  6
CONTINUOUS
 10
-9.1804659999999991
 20
10.841362
 30
0.0
 11
-13.455391000000001
 21
10.841362
 31
0.0
  0
LINE
  5
24E
  8
0
  6
CONTINUOUS
 10
-21.667891000000001
 20
11.716362
 30
0.0
 11
-20.417891000000001
 21
11.716362
 31
0.0
  0
LINE
  5
24F
  8
0
  6
CONTINUOUS
 10
-20.417891000000001
 20
13.86636
 30
0.0
 11
-21.667891000000001
 21
13.86636
 31
0.0
  0
LINE
  5
250
  8
0
  6
CONTINUOUS
 10
-11.94289
 20
11.716362
 30
0.0
 11
-10.69289
 21
11.716362
 31
0.0
  0
LINE
  5
251
  8
0
  6
CONTINUOUS
 10
-10.69289
 20
13.86636
 30
0.0
 11
-11.94289
 21
13.86636
 31
0.0
  0
LINE
  5
252
  8
0
  6
CONTINUOUS
 10
-18.905390000000001
 20
10.541363
 30
0.0
 11
-18.905390000000001
 21
10.666363
 31
0.0
  0
LINE
  5
253
  8
0
  6
CONTINUOUS
 10
-13.455391000000001
 20
10.666363
 30
0.0
 11
-13.455391000000001
 21
10.541363
 31
0.0
  0
LINE
  5
254
  8
0
  6
CONTINUOUS
 10
-23.742889000000002
 20
10.541363
 30
0.0
 11
-23.742889000000002
 21
12.491859
 31
0.0
  0
LINE
  5
255
  8
0
  6
CONTINUOUS
 10
-8.3679659999999991
 20
12.491859
 30
0.0
 11
-8.6179659999999991
 21
12.491859
 31
0.0
  0
LINE
  5
256
  8
0
  6
CONTINUOUS
 10
-23.742889000000002
 20
12.491859
 30
0.0
 11
-23.992889000000002
 21
12.491859
 31
0.0
  0
LINE
  5
257
  8
0
  6
CONTINUOUS
 10
-8.6179659999999991
 20
12.491859
 30
0.0
 11
-8.6179659999999991
 21
10.541363
 31
0.0
  0
LINE
  5
258
  8
0
  6
CONTINUOUS
 10
-8.6179659999999991
 20
10.541363
 30
0.0
 11
-23.742889000000002
 21
10.541363
 31
0.0
  0
LINE
  5
259
  8
0
  6
CONTINUOUS
 10
-24.242889000000002
 20
12.491859
 30
0.0
 11
-23.992889000000002
 21
12.491859
 31
0.0
  0
LINE
  5
25A
  8
0
  6
CONTINUOUS
 10
-24.242889000000002
 20
10.291363
 30
0.0
 11
-24.242889000000002
 21
12.491859
 31
0.0
  0
LINE
  5
25B
  8
0
  6
CONTINUOUS
 10
-8.1179659999999991
 20
12.491859
 30
0.0
 11
-8.1179659999999991
 21
10.291363
 31
0.0
  0
LINE
  5
25C
  8
0
  6
CONTINUOUS
 10
-8.3679659999999991
 20
12.491859
 30
0.0
 11
-8.1179659999999991
 21
12.491859
 31
0.0
  0
LINE
  5
25D
  8
0
  6
CONTINUOUS
 10
-8.3679659999999991
 20
10.041363
 30
0.0
 11
-23.992889000000002
 21
10.041363
 31
0.0
  0
LINE
  5
25E
  8
0
  6
CONTINUOUS
 10
-13.310539
 20
-11.573389000000001
 30
0.0
 11
-12.302640999999999
 21
-11.573389000000001
 31
0.0
  0
LINE
  5
25F
  8
0
  6
CONTINUOUS
 10
-19.050215000000001
 20
-11.573389000000001
 30
0.0
 11
-20.058115000000001
 21
-11.573389000000001
 31
0.0
  0
LINE
  5
260
  8
0
  6
CONTINUOUS
 10
-20.058115000000001
 20
-11.608389000000001
 30
0.0
 11
-20.058115000000001
 21
-11.573389000000001
 31
0.0
  0
LINE
  5
261
  8
0
  6
CONTINUOUS
 10
-13.310539
 20
-11.608389000000001
 30
0.0
 11
-13.310539
 21
-11.573389000000001
 31
0.0
  0
LINE
  5
262
  8
0
  6
CONTINUOUS
 10
-12.302640999999999
 20
-11.608389000000001
 30
0.0
 11
-12.302640999999999
 21
-11.573389000000001
 31
0.0
  0
LINE
  5
263
  8
0
  6
CONTINUOUS
 10
-19.050215000000001
 20
-11.608389000000001
 30
0.0
 11
-19.050215000000001
 21
-11.573389000000001
 31
0.0
  0
LINE
  5
264
  8
0
  6
CONTINUOUS
 10
-13.305716
 20
-11.243639
 30
0.0
 11
-13.311040999999999
 21
-11.608389000000001
 31
0.0
  0
LINE
  5
265
  8
0
  6
CONTINUOUS
 10
-19.055040000000002
 20
-11.243639
 30
0.0
 11
-19.049714999999999
 21
-11.608389000000001
 31
0.0
  0
LINE
  5
266
  8
0
  6
CONTINUOUS
 10
-23.242889000000002
 20
13.090611000000001
 30
0.0
 11
-23.242889000000002
 21
12.491859
 31
0.0
  0
LINE
  5
267
  8
0
  6
CONTINUOUS
 10
-8.6179659999999991
 20
12.491859
 30
0.0
 11
-9.1179659999999991
 21
12.491859
 31
0.0
  0
LINE
  5
268
  8
0
  6
CONTINUOUS
 10
-23.421789
 20
12.911861
 30
0.0
 11
-23.242889000000002
 21
13.090611000000001
 31
0.0
  0
LINE
  5
269
  8
0
  6
CONTINUOUS
 10
-23.992889000000002
 20
13.090611000000001
 30
0.0
 11
-23.242889000000002
 21
13.090611000000001
 31
0.0
  0
LINE
  5
26A
  8
0
  6
CONTINUOUS
 10
-23.242889000000002
 20
12.491859
 30
0.0
 11
-23.742889000000002
 21
12.491859
 31
0.0
  0
LINE
  5
26B
  8
0
  6
CONTINUOUS
 10
-23.421789
 20
12.670859999999999
 30
0.0
 11
-23.242889000000002
 21
12.491859
 31
0.0
  0
LINE
  5
26C
  8
0
  6
CONTINUOUS
 10
-20.058115000000001
 20
-11.573389000000001
 30
0.0
 11
-20.055565000000001
 21
-11.243639
 31
0.0
  0
LINE
  5
26D
  8
0
  6
CONTINUOUS
 10
-20.058389999999999
 20
-11.608389000000001
 30
0.0
 11
-20.058115000000001
 21
-11.573389000000001
 31
0.0
  0
LINE
  5
26E
  8
0
  6
CONTINUOUS
 10
-12.302640999999999
 20
-11.573389000000001
 30
0.0
 11
-12.305216
 21
-11.243639
 31
0.0
  0
LINE
  5
26F
  8
0
  6
CONTINUOUS
 10
-12.302364000000001
 20
-11.608389000000001
 30
0.0
 11
-12.302640999999999
 21
-11.573389000000001
 31
0.0
  0
LINE
  5
270
  8
0
  6
CONTINUOUS
 10
-23.242889000000002
 20
-7.6331410000000002
 30
0.0
 11
-23.242889000000002
 21
-7.034389
 31
0.0
  0
LINE
  5
271
  8
0
  6
CONTINUOUS
 10
-8.3679659999999991
 20
-7.034389
 30
0.0
 11
-9.1179659999999991
 21
-7.034389
 31
0.0
  0
LINE
  5
272
  8
0
  6
CONTINUOUS
 10
-23.421789
 20
-7.2131389999999991
 30
0.0
 11
-23.242889000000002
 21
-7.034389
 31
0.0
  0
LINE
  5
273
  8
0
  6
CONTINUOUS
 10
-23.242889000000002
 20
-7.034389
 30
0.0
 11
-23.992889000000002
 21
-7.034389
 31
0.0
  0
LINE
  5
274
  8
0
  6
CONTINUOUS
 10
-15.880964000000001
 20
15.001861999999999
 30
0.0
 11
-15.880964000000001
 21
14.607113
 31
0.0
  0
LINE
  5
275
  8
0
  6
CONTINUOUS
 10
-9.1179659999999991
 20
13.090611000000001
 30
0.0
 11
-8.3679659999999991
 21
13.090611000000001
 31
0.0
  0
LINE
  5
276
  8
0
  6
CONTINUOUS
 10
-9.1179659999999991
 20
-7.6331410000000002
 30
0.0
 11
-8.3679659999999991
 21
-7.6331410000000002
 31
0.0
  0
LINE
  5
277
  8
0
  6
CONTINUOUS
 10
-8.9389649999999996
 20
-7.2131389999999991
 30
0.0
 11
-9.1179659999999991
 21
-7.034389
 31
0.0
  0
LINE
  5
278
  8
0
  6
CONTINUOUS
 10
-9.1179659999999991
 20
-7.034389
 30
0.0
 11
-9.1179659999999991
 21
-7.6331410000000002
 31
0.0
  0
LINE
  5
279
  8
0
  6
CONTINUOUS
 10
-8.9389649999999996
 20
-7.4541399999999989
 30
0.0
 11
-9.1179659999999991
 21
-7.6331410000000002
 31
0.0
  0
LINE
  5
27A
  8
0
  6
CONTINUOUS
 10
-16.479790000000001
 20
-9.774386999999999
 30
0.0
 11
-16.479790000000001
 21
-10.219139
 31
0.0
  0
LINE
  5
27B
  8
0
  6
CONTINUOUS
 10
-24.89039
 20
10.603111
 30
0.0
 11
-24.89039
 21
12.355862
 31
0.0
  0
LINE
  5
27C
  8
0
  6
CONTINUOUS
 10
-24.89039
 20
-6.8983879999999997
 30
0.0
 11
-24.89039
 21
-4.770389999999999
 31
0.0
  0
LINE
  5
27D
  8
0
  6
CONTINUOUS
 10
-9.1179659999999991
 20
12.491859
 30
0.0
 11
-9.1179659999999991
 21
13.090611000000001
 31
0.0
  0
LINE
  5
27E
  8
0
  6
CONTINUOUS
 10
-8.9389649999999996
 20
12.670859999999999
 30
0.0
 11
-9.1179659999999991
 21
12.491859
 31
0.0
  0
LINE
  5
27F
  8
0
  6
CONTINUOUS
 10
-8.9389649999999996
 20
12.911861
 30
0.0
 11
-9.1179659999999991
 21
13.090611000000001
 31
0.0
  0
LINE
  5
280
  8
0
  6
CONTINUOUS
 10
-15.880964000000001
 20
-10.219139
 30
0.0
 11
-15.880964000000001
 21
-9.774386999999999
 31
0.0
  0
LINE
  5
281
  8
0
  6
CONTINUOUS
 10
-16.479790000000001
 20
14.607113
 30
0.0
 11
-16.479790000000001
 21
15.001861999999999
 31
0.0
  0
LINE
  5
282
  8
0
  6
CONTINUOUS
 10
-23.992889000000002
 20
-7.6331410000000002
 30
0.0
 11
-23.242889000000002
 21
-7.6331410000000002
 31
0.0
  0
LINE
  5
283
  8
0
  6
CONTINUOUS
 10
-23.421789
 20
-7.4541399999999989
 30
0.0
 11
-23.242889000000002
 21
-7.6331410000000002
 31
0.0
  0
LINE
  5
284
  8
0
  6
CONTINUOUS
 10
-12.302216
 20
-11.625889000000001
 30
0.0
 11
-12.302364000000001
 21
-11.608389000000001
 31
0.0
  0
LINE
  5
285
  8
0
  6
CONTINUOUS
 10
-12.302364000000001
 20
-11.608389000000001
 30
0.0
 11
-13.311040999999999
 21
-11.608389000000001
 31
0.0
  0
LINE
  5
286
  8
0
  6
CONTINUOUS
 10
-13.311040999999999
 20
-11.608389000000001
 30
0.0
 11
-13.311291000000001
 21
-11.625889000000001
 31
0.0
  0
LINE
  5
287
  8
0
  6
CONTINUOUS
 10
-20.058389999999999
 20
-11.608389000000001
 30
0.0
 11
-19.049714999999999
 21
-11.608389000000001
 31
0.0
  0
LINE
  5
288
  8
0
  6
CONTINUOUS
 10
-20.058540000000001
 20
-11.625889000000001
 30
0.0
 11
-20.058389999999999
 21
-11.608389000000001
 31
0.0
  0
LINE
  5
289
  8
0
  6
CONTINUOUS
 10
-19.049714999999999
 20
-11.608389000000001
 30
0.0
 11
-19.049465000000001
 21
-11.625889000000001
 31
0.0
  0
LINE
  5
28A
  8
0
  6
CONTINUOUS
 10
-7.4704670000000002
 20
12.355862
 30
0.0
 11
-7.4704670000000002
 21
10.603111
 31
0.0
  0
LINE
  5
28B
  8
0
  6
CONTINUOUS
 10
-7.4704670000000002
 20
-4.770389999999999
 30
0.0
 11
-7.4704670000000002
 21
-6.8983879999999997
 31
0.0
  0
LINE
  5
28C
  8
0
  6
CONTINUOUS
 10
-25.272639999999999
 20
15.883862000000001
 30
0.0
 11
-25.272639999999999
 21
13.03661
 31
0.0
  0
LINE
  5
28D
  8
0
  6
CONTINUOUS
 10
-24.772939999999998
 20
16.383610000000001
 30
0.0
 11
-16.425816000000001
 21
16.383610000000001
 31
0.0
  0
LINE
  5
28E
  8
0
  6
CONTINUOUS
 10
-16.300865000000002
 20
16.258610000000001
 30
0.0
 11
-16.300865000000002
 21
14.427113
 31
0.0
  0
LINE
  5
28F
  8
0
  6
CONTINUOUS
 10
-16.059891
 20
14.427113
 30
0.0
 11
-16.059891
 21
16.258610000000001
 31
0.0
  0
LINE
  5
290
  8
0
  6
CONTINUOUS
 10
-15.934939999999999
 20
16.383610000000001
 30
0.0
 11
-7.5877149999999993
 21
16.383610000000001
 31
0.0
  0
LINE
  5
291
  8
0
  6
CONTINUOUS
 10
-7.088214999999999
 20
15.883862000000001
 30
0.0
 11
-7.088214999999999
 21
13.03661
 31
0.0
  0
LINE
  5
292
  8
0
  6
CONTINUOUS
 10
-7.213214999999999
 20
12.911861
 30
0.0
 11
-8.9389649999999996
 21
12.911861
 31
0.0
  0
LINE
  5
293
  8
0
  6
CONTINUOUS
 10
-8.9389649999999996
 20
12.911861
 30
0.0
 11
-8.9389649999999996
 21
12.670859999999999
 31
0.0
  0
LINE
  5
294
  8
0
  6
CONTINUOUS
 10
-8.9389649999999996
 20
12.670859999999999
 30
0.0
 11
-7.213214999999999
 21
12.670859999999999
 31
0.0
  0
LINE
  5
295
  8
0
  6
CONTINUOUS
 10
-7.088214999999999
 20
12.545859999999999
 30
0.0
 11
-7.088214999999999
 21
-7.0883899999999986
 31
0.0
  0
LINE
  5
296
  8
0
  6
CONTINUOUS
 10
-7.213214999999999
 20
-7.2131389999999991
 30
0.0
 11
-8.9389649999999996
 21
-7.2131389999999991
 31
0.0
  0
LINE
  5
297
  8
0
  6
CONTINUOUS
 10
-8.9389649999999996
 20
-7.2131389999999991
 30
0.0
 11
-8.9389649999999996
 21
-7.4541399999999989
 31
0.0
  0
LINE
  5
298
  8
0
  6
CONTINUOUS
 10
-8.9389649999999996
 20
-7.4541399999999989
 30
0.0
 11
-7.213214999999999
 21
-7.4541399999999989
 31
0.0
  0
LINE
  5
299
  8
0
  6
CONTINUOUS
 10
-7.088214999999999
 20
-7.5791399999999989
 30
0.0
 11
-7.088214999999999
 21
-11.052638999999999
 31
0.0
  0
LINE
  5
29A
  8
0
  6
CONTINUOUS
 10
-12.302216
 20
-11.625889000000001
 30
0.0
 11
-7.5799640000000004
 21
-11.552389
 31
0.0
  0
LINE
  5
29B
  8
0
  6
CONTINUOUS
 10
-13.311291000000001
 20
-11.625889000000001
 30
0.0
 11
-12.302216
 21
-11.625889000000001
 31
0.0
  0
LINE
  5
29C
  8
0
  6
CONTINUOUS
 10
-15.938589
 20
-11.549139
 30
0.0
 11
-13.311291000000001
 21
-11.625889000000001
 31
0.0
  0
LINE
  5
29D
  8
0
  6
CONTINUOUS
 10
-16.059891
 20
-11.424139
 30
0.0
 11
-16.059891
 21
-9.5946390000000008
 31
0.0
  0
LINE
  5
29E
  8
0
  6
CONTINUOUS
 10
-16.300865000000002
 20
-9.5946390000000008
 30
0.0
 11
-16.300865000000002
 21
-11.424139
 31
0.0
  0
LINE
  5
29F
  8
0
  6
CONTINUOUS
 10
-16.422165
 20
-11.549139
 30
0.0
 11
-19.049465000000001
 21
-11.625889000000001
 31
0.0
  0
LINE
  5
2A0
  8
0
  6
CONTINUOUS
 10
-19.049465000000001
 20
-11.625889000000001
 30
0.0
 11
-20.058540000000001
 21
-11.625889000000001
 31
0.0
  0
LINE
  5
2A1
  8
0
  6
CONTINUOUS
 10
-20.058540000000001
 20
-11.625889000000001
 30
0.0
 11
-24.780739000000001
 21
-11.552389
 31
0.0
  0
LINE
  5
2A2
  8
0
  6
CONTINUOUS
 10
-25.272639999999999
 20
-7.5791399999999989
 30
0.0
 11
-25.272639999999999
 21
-11.052638999999999
 31
0.0
  0
LINE
  5
2A3
  8
0
  6
CONTINUOUS
 10
-25.147639999999999
 20
-7.4541399999999989
 30
0.0
 11
-23.421789
 21
-7.4541399999999989
 31
0.0
  0
LINE
  5
2A4
  8
0
  6
CONTINUOUS
 10
-23.421789
 20
-7.4541399999999989
 30
0.0
 11
-23.421789
 21
-7.2131389999999991
 31
0.0
  0
LINE
  5
2A5
  8
0
  6
CONTINUOUS
 10
-23.421789
 20
-7.2131389999999991
 30
0.0
 11
-25.147639999999999
 21
-7.2131389999999991
 31
0.0
  0
LINE
  5
2A6
  8
0
  6
CONTINUOUS
 10
-25.272639999999999
 20
12.545859999999999
 30
0.0
 11
-25.272639999999999
 21
-7.0883899999999986
 31
0.0
  0
LINE
  5
2A7
  8
0
  6
CONTINUOUS
 10
-25.147639999999999
 20
12.670859999999999
 30
0.0
 11
-23.421789
 21
12.670859999999999
 31
0.0
  0
LINE
  5
2A8
  8
0
  6
CONTINUOUS
 10
-23.421789
 20
12.670859999999999
 30
0.0
 11
-23.421789
 21
12.911861
 31
0.0
  0
LINE
  5
2A9
  8
0
  6
CONTINUOUS
 10
-23.421789
 20
12.911861
 30
0.0
 11
-25.147639999999999
 21
12.911861
 31
0.0
  0
LINE
  5
2AA
  8
0
  6
CONTINUOUS
 10
-25.830390999999999
 20
15.94136
 30
0.0
 11
-25.830390999999999
 21
-11.758637999999999
 31
0.0
  0
LINE
  5
2AB
  8
0
  6
CONTINUOUS
 10
-7.7804640000000003
 20
17.19136
 30
0.0
 11
-24.580390999999999
 21
17.19136
 31
0.0
  0
LINE
  5
2AC
  8
0
  6
CONTINUOUS
 10
-6.5304640000000003
 20
-11.758637999999999
 30
0.0
 11
-6.5304640000000003
 21
15.94136
 31
0.0
  0
LINE
  5
2AD
  8
0
  6
CONTINUOUS
 10
-25.568263999999999
 20
-11.833639
 30
0.0
 11
-25.748889999999999
 21
-11.833639
 31
0.0
  0
LINE
  5
2AE
  8
0
  6
CONTINUOUS
 10
-6.6119649999999988
 20
-11.833639
 30
0.0
 11
-6.7924649999999991
 21
-11.833639
 31
0.0
  0
LINE
  5
2AF
  8
0
  6
CONTINUOUS
 10
-25.380389999999998
 20
15.666363
 30
0.0
 11
-25.380389999999998
 21
-11.758637999999999
 31
0.0
  0
LINE
  5
2B0
  8
0
  6
CONTINUOUS
 10
-6.9804649999999988
 20
-11.758637999999999
 30
0.0
 11
-6.9804649999999988
 21
15.666363
 31
0.0
  0
LINE
  5
2B1
  8
0
  6
CONTINUOUS
 10
-25.455390999999999
 20
-11.833639
 30
0.0
 11
-25.568263999999999
 21
-11.833639
 31
0.0
  0
LINE
  5
2B2
  8
0
  6
CONTINUOUS
 10
-8.0554659999999991
 20
16.74136
 30
0.0
 11
-24.305389000000002
 21
16.74136
 31
0.0
  0
LINE
  5
2B3
  8
0
  6
CONTINUOUS
 10
-6.7924649999999991
 20
-11.833639
 30
0.0
 11
-6.9054640000000003
 21
-11.833639
 31
0.0
  0
LINE
  5
2B4
  8
0
  6
CONTINUOUS
 10
-17.055389000000002
 20
-12.925215
 30
0.0
 11
-17.055389000000002
 21
-13.145213999999999
 31
0.0
  0
LINE
  5
2B5
  8
0
  6
CONTINUOUS
 10
-15.305389
 20
-13.145213999999999
 30
0.0
 11
-15.305389
 21
-12.925215
 31
0.0
  0
LINE
  5
2B6
  8
0
  6
CONTINUOUS
 10
-5.1802140000000003
 20
-13.708714000000001
 30
0.0
 11
-27.180515
 21
-13.708714000000001
 31
0.0
  0
LINE
  5
2B7
  8
0
  6
CONTINUOUS
 10
-5.1802140000000003
 20
18.541363
 30
0.0
 11
-27.180515
 21
18.541363
 31
0.0
  0
LINE
  5
2B8
  8
0
  6
CONTINUOUS
 10
-27.430389000000002
 20
18.291363
 30
0.0
 11
-27.430389000000002
 21
-13.458864
 31
0.0
  0
LINE
  5
2B9
  8
0
  6
CONTINUOUS
 10
-17.055389000000002
 20
-13.261238000000001
 30
0.0
 11
-17.055389000000002
 21
-13.298738
 31
0.0
  0
LINE
  5
2BA
  8
0
  6
CONTINUOUS
 10
-15.305389
 20
-13.261238000000001
 30
0.0
 11
-15.305389
 21
-13.145213999999999
 31
0.0
  0
LINE
  5
2BB
  8
0
  6
CONTINUOUS
 10
-17.055389000000002
 20
-13.145213999999999
 30
0.0
 11
-17.055389000000002
 21
-13.261238000000001
 31
0.0
  0
LINE
  5
2BC
  8
0
  6
CONTINUOUS
 10
-4.930466
 20
18.291363
 30
0.0
 11
-4.930466
 21
-13.458864
 31
0.0
  0
LINE
  5
2BD
  8
0
  6
CONTINUOUS
 10
-17.12904
 20
-13.333714000000001
 30
0.0
 11
-5.5552140000000003
 21
-13.333714000000001
 31
0.0
  0
LINE
  5
2BE
  8
0
  6
CONTINUOUS
 10
-5.305466
 20
-13.083864
 30
0.0
 11
-5.305466
 21
17.916363
 31
0.0
  0
LINE
  5
2BF
  8
0
  6
CONTINUOUS
 10
-5.5552140000000003
 20
18.166363
 30
0.0
 11
-26.805515
 21
18.166363
 31
0.0
  0
LINE
  5
2C0
  8
0
  6
CONTINUOUS
 10
-27.055389000000002
 20
17.916363
 30
0.0
 11
-27.055389000000002
 21
-13.083864
 31
0.0
  0
LINE
  5
2C1
  8
0
  6
CONTINUOUS
 10
-26.805515
 20
-13.333714000000001
 30
0.0
 11
-17.130389999999998
 21
-13.333714000000001
 31
0.0
  0
LINE
  5
2C2
  8
0
  6
CONTINUOUS
 10
40.0
 20
42.5
 30
0.0
 11
40.0
 21
-42.5
 31
0.0
  0
LINE
  5
2C3
  8
0
  6
CONTINUOUS
 10
-40.0
 20
-42.5
 30
0.0
 11
40.0
 21
-42.5
 31
0.0
  0
LINE
  5
2C4
  8
0
  6
CONTINUOUS
 10
-30.0
 20
42.5
 30
0.0
 11
-30.0
 21
34.5
 31
0.0
  0
LINE
  5
2C5
  8
0
  6
CONTINUOUS
 10
-40.0
 20
34.5
 30
0.0
 11
40.0
 21
34.5
 31
0.0
  0
LINE
  5
2C6
  8
0
  6
CONTINUOUS
 10
-40.0
 20
42.5
 30
0.0
 11
40.0
 21
42.5
 31
0.0
  0
LINE
  5
2C7
  8
0
  6
CONTINUOUS
 10
-40.0
 20
42.5
 30
0.0
 11
-40.0
 21
-42.5
 31
0.0
  0
TEXT
  5
2C8
  8
0
 10
-9.8550219999999982
 20
8.2084729999999997
 30
0.0
 40
1.0
  1
上
 41
0.833
  0
TEXT
  5
2C9
  8
0
 10
-3.5833319999999991
 20
37.0
 30
0.0
 40
3.0
  1
配線スペーサ
 41
0.833
  0
TEXT
  5
2CA
  8
0
 10
24.324325999999999
 20
-41.0
 30
0.0
 40
2.0
  1
WK9805
 41
0.973
  0
TEXT
  5
2CB
  8
0
 10
-20.366897999999999
 20
-12.546074000000001
 30
0.0
 40
0.7
  1
品番 ＷＫ9805
 41
0.975
  0
TEXT
  5
2CC
  8
0
 10
-22.559467000000001
 20
8.2135960000000008
 30
0.0
 40
1.0
  1
UP
  0
TEXT
  5
2CD
  8
0
 10
-18.817458999999999
 20
-5.9535289999999996
 30
0.0
 40
0.6
  1
Panasonic
 41
1.0800000000000001
  0
TEXT
  5
2CE
  8
0
 10
-14.323855999999999
 20
-9.9829519999999992
 30
0.0
 40
0.4
  1
Ｍａｄｅ ｉｎ Ｊａｐａｎ
 41
0.9030000000000001
  0
LINE
  5
2CF
  8
0
  6
CONTINUOUS
 10
0.371941
 20
18.541363
 30
0.0
 11
0.371941
 21
-13.708714000000001
 31
0.0
  0
LINE
  5
2D0
  8
0
  6
CONTINUOUS
 10
-5.1802140000000003
 20
18.541363
 30
0.0
 11
1.3719410000000001
 21
18.541363
 31
0.0
  0
LINE
  5
2D1
  8
0
  6
CONTINUOUS
 10
-5.1802140000000003
 20
-13.708714000000001
 30
0.0
 11
1.3719410000000001
 21
-13.708714000000001
 31
0.0
  0
LINE
  5
2D2
  8
0
  6
CONTINUOUS
 10
-4.930466
 20
-20.046961
 30
0.0
 11
-27.430389000000002
 21
-20.046961
 31
0.0
  0
LINE
  5
2D3
  8
0
  6
CONTINUOUS
 10
-4.930466
 20
-13.458864
 30
0.0
 11
-4.930466
 21
-21.046961
 31
0.0
  0
LINE
  5
2D4
  8
0
  6
CONTINUOUS
 10
-27.430389000000002
 20
-13.458864
 30
0.0
 11
-27.430389000000002
 21
-21.046961
 31
0.0
  0
LINE
  5
2D5
  8
0
  6
CONTINUOUS
 10
26.991530999999998
 20
-19.937424
 30
0.0
 11
12.991535000000001
 21
-19.937424
 31
0.0
  0
LINE
  5
2D6
  8
0
  6
CONTINUOUS
 10
26.991530999999998
 20
-10.583639
 30
0.0
 11
26.991530999999998
 21
-20.937424
 31
0.0
  0
LINE
  5
2D7
  8
0
  6
CONTINUOUS
 10
12.991535000000001
 20
-12.998113999999999
 30
0.0
 11
12.991535000000001
 21
-20.937424
 31
0.0
  0
TEXT
  5
2D8
  8
0
 10
17.908203
 20
-19.302423000000001
 30
0.0
 40
2.5
  1
56
  0
LINE
  5
2D9
  8
0
  6
CONTINUOUS
 10
14.491535000000001
 20
-20.187424
 30
0.0
 11
12.991535000000001
 21
-19.937424
 31
0.0
  0
LINE
  5
2DA
  8
0
  6
CONTINUOUS
 10
12.991535000000001
 20
-19.937424
 30
0.0
 11
14.491535000000001
 21
-19.687422000000002
 31
0.0
  0
LINE
  5
2DB
  8
0
  6
CONTINUOUS
 10
12.991535000000001
 20
-19.937424
 30
0.0
 11
14.491535000000001
 21
-19.937424
 31
0.0
  0
LINE
  5
2DC
  8
0
  6
CONTINUOUS
 10
25.491530999999998
 20
-19.687422000000002
 30
0.0
 11
26.991530999999998
 21
-19.937424
 31
0.0
  0
LINE
  5
2DD
  8
0
  6
CONTINUOUS
 10
26.991530999999998
 20
-19.937424
 30
0.0
 11
25.491530999999998
 21
-20.187424
 31
0.0
  0
LINE
  5
2DE
  8
0
  6
CONTINUOUS
 10
26.991530999999998
 20
-19.937424
 30
0.0
 11
25.491530999999998
 21
-19.937424
 31
0.0
  0
TEXT
  5
2DF
  8
0
 10
-18.242927999999999
 20
-19.411961000000002
 30
0.0
 40
2.5
  1
90
 41
1.1000000000000001
  0
LINE
  5
2E0
  8
0
  6
CONTINUOUS
 10
-25.930389000000002
 20
-20.296961
 30
0.0
 11
-27.430389000000002
 21
-20.046961
 31
0.0
  0
LINE
  5
2E1
  8
0
  6
CONTINUOUS
 10
-27.430389000000002
 20
-20.046961
 30
0.0
 11
-25.930389000000002
 21
-19.796961
 31
0.0
  0
LINE
  5
2E2
  8
0
  6
CONTINUOUS
 10
-27.430389000000002
 20
-20.046961
 30
0.0
 11
-25.930389000000002
 21
-20.046961
 31
0.0
  0
LINE
  5
2E3
  8
0
  6
CONTINUOUS
 10
-6.430466
 20
-19.796961
 30
0.0
 11
-4.930466
 21
-20.046961
 31
0.0
  0
LINE
  5
2E4
  8
0
  6
CONTINUOUS
 10
-4.930466
 20
-20.046961
 30
0.0
 11
-6.430466
 21
-20.296961
 31
0.0
  0
LINE
  5
2E5
  8
0
  6
CONTINUOUS
 10
-4.930466
 20
-20.046961
 30
0.0
 11
-6.430466
 21
-20.046961
 31
0.0
  0
TEXT
  5
2E6
  8
0
 10
-0.2630619999999999
 20
-0.7920110000000001
 30
0.0
 40
2.5
  1
129
 50
90.0
 41
1.1000000000000001
  0
LINE
  5
2E7
  8
0
  6
CONTINUOUS
 10
0.621941
 20
-12.208714000000001
 30
0.0
 11
0.371941
 21
-13.708714000000001
 31
0.0
  0
LINE
  5
2E8
  8
0
  6
CONTINUOUS
 10
0.371941
 20
-13.708714000000001
 30
0.0
 11
0.121937
 21
-12.208714000000001
 31
0.0
  0
LINE
  5
2E9
  8
0
  6
CONTINUOUS
 10
0.371941
 20
-13.708714000000001
 30
0.0
 11
0.371941
 21
-12.208714000000001
 31
0.0
  0
LINE
  5
2EA
  8
0
  6
CONTINUOUS
 10
0.121937
 20
17.041363
 30
0.0
 11
0.371941
 21
18.541363
 31
0.0
  0
LINE
  5
2EB
  8
0
  6
CONTINUOUS
 10
0.371941
 20
18.541363
 30
0.0
 11
0.621941
 21
17.041363
 31
0.0
  0
LINE
  5
2EC
  8
0
  6
CONTINUOUS
 10
0.371941
 20
18.541363
 30
0.0
 11
0.371941
 21
17.041363
 31
0.0
  0
ENDSEC
  0
EOF
